Gob - What To Do Chords & Tabs

 

What To Do Chords & Tabs

Gob Chords & Tabs

Version: 5 Type: Tab 0 ratings
1 star 2 stars 3 stars 4 stars 5 stars
comments

What To Do Tab

   
#-----------------------------PLEASE NOTE-------------------------------------#
#This OLGA file is the author's own work and represents their interpretation  #
#of the song. You may only use this file for private study, scholarship, or   #
#research. Remember to view this file in Courier, or some other monospaced    #
#font. See http://www.olga.net/faq/ for more information.                     #
#-----------------------------------------------------------------------------#

Date: Sun, 25 Jun 2000 19:54:17 -0400
From: "David Gens" 
Subject: g/gob/what_to_do.tab

============================================================
         Title : What to Do
        Artist : Gob
Transcribed by : Dave (davidgens@hotmail.com)
============================================================

Legend
------

h  = hammer-on
p  = pull-off
b  = bend
r  = bend release
/  = slide up/down
<5> = natural harmonic
[5] = artifical harmonic
~  = vibrato
tr = trill
x  = heavy palm mute



                          Main Riff

Eb|---------------------------------------------------------------
Bb|---------------------------------------------------------------
Gb|---9-8-6-8------9-8-6-8------9-8-6-8-9----9-8-6-8-6----9-8-6---
Db|-9---------9--9---------6--6------------9------------9-------9-
Ab|---------------------------------------------------------------
Eb|---------------------------------------------------------------



                          Verses #1
[ Tab from: http://www.guitartabs.cc/tabs/g/gob/what_to_do_tab_ver_5.html ]
Eb|--------------------------------------------------------
Bb|--------------------------------------------------------
Gb|--4-x-x-x-x-x-x-x-x-x-x-x-x-x-4-------------------------
Db|--4-x-x-x-x-x-x-x-x-x-x-x-x-x-4-4-x-x-x-x-4-2-x-x-x-x-2-
Ab|--2-x-x-x-x-x-x-x-x-x-x-x-x-x-2-4-x-x-x-x-4-2-x-x-x-x-2-
Eb|--------------------------------2-x-x-x-x-2-0-x-x-x-x-0-



                         Verses #2

Eb|--------------------------------------------------
Bb|--------------------------------------------------
Gb|--4-x-x-x-x-x-x-x-x-x-x-x-x-x-4-------------8/9-9-
Db|--4-x-x-x-x-x-x-x-x-x-x-x-x-x-4-4-x-x-x-x-4-8-9-9-
Ab|--2-x-x-x-x-x-x-x-x-x-x-x-x-x-2-4-x-x-x-x-4-6-7-7-
Eb|--------------------------------2-x-x-x-x-2-------



                   Bridge (Do you even know...)

Eb|-----------------------------------------------------
Bb|-----------------------------------------------------
Gb|--4-4-4-4-4-4-------8/9-9--4-4-4-4-4-4---------------
Db|--4-4-4-4-4-4-4-4-4-8/9-9--4-4-4-4-4-4-4-4-4-2-2-2-2-
Ab|--2-2-2-2-2-2-4-4-4-6/7-7--2-2-2-2-2-2-4-4-4-2-2-2-2-
Eb|--------------2-2-2--------------------2-2-2-0-0-0-0-



                        Chorus

Eb|----------------------------------------------
Bb|--------------------------4-5-5-5-------------
Gb|--6-6-6-6-6-6-6-6-6-6-6-6-3-4-4-4-4-x-x-------
Db|--6-6-6-6-6-6-6-6-6-6-6-6-1-2-2-2-4-x-x-4-x-x-
Ab|--4-4-4-4-4-4-4-4-4-4-4-4---------2-x-x-4-x-x-
Eb|----------------------------------------2-x-x-



                              Riff #2

Eb|----------------------------------------------
Bb|----------------------------------------------
Gb|----------------------------------------------
Db|------2-2-1-1---------2-2-1-1---------2-2-1-1-
Ab|--2-2---------2-2-----------------------------
Eb|------------------4-4---------4-4-2-2---------

Eb|---------------------
Bb|---------------------
Gb|---------------------
Db|---------2-2-1-1-----
Ab|---------------------
Eb|-2-2-0-0---------0-0-



Order
-----

Main Riff     1x
Verses #1     1x
Verses #2     1x
Bridge        1x
Main Riff     1x
Verses #1     1x
Verses #2     1x
Bridge        1x
Chorus        2x
Riff #2       4x
Chorus        10x
Comments