Gob - What To Do Chords & Tabs

 

What To Do Chords & Tabs

Gob Chords & Tabs

Version: 4 Type: Tab 0 ratings
1 star 2 stars 3 stars 4 stars 5 stars
comments

What To Do Tab

#----------------------------------PLEASE NOTE--------------------------------#

   #This file is the author's own work and represents their interpretation of the#

   #song. You may only use this file for private study, scholarship, or research.#

   #-----------------------------------------------------------------------------#


   WHAT TO DO - Gob 
   Album: How Far Shallow Takes You 


   This song was tabbed by: Gordon Huntley. 

   This one of the best punk songs I've heard in a while. This is another song 
   I've been trying to tab for a while and I eventually got it!! Enjoy!! 

   TUNING: normal 

   Intro (Guitar 1) 

   e:--------------------------------------------------------------------------- 
   B:-----4--3--1--3----------4--3--1--3----------4--3--1--3--4-----4--3--1--3-- 
   G:--3--------------3----3-------------------3-----------------3-------------- 
   D:-------------------------------------5------------------------------------- 
   A:--------------------------------------------------------------------------- 
   E:--------------------------------------------------------------------------- 

   e:------------------------- 
   B:----------4--3--1--3----- 
   G:--5----3--------------3-- 
   D:------------------------- 
   A:------------------------- 
   E:------------------------- 

   Intro: (Guitar 2) 

   e:--------------------------------------------------------------------- 
   B:--------------------------------------------------------------------- 
   G:---------------------3--3--3--3--3--3--3--3-------------------------- 
   D:---------------------3--3--3--3--3--3--3--3--5--5--5--5--5--5--5--5-- 
   A:---------------------1--1--1--1--1--1--1--1--5--5--5--5--5--5--5--5-- 
   E:---------------------------------------------3--3--3--3--3--3--3--3-- 

   e:-------------------------------------------------- 
   B:-------------------------------------------------- 
   G:--8--8--8--8--8--8--8--8-------------------------- 
   D:--8--8--8--8--8--8--8--8--3--3--3--3--3--3--3--3-- 
   A:--6--6--6--6--6--6--6--6--3--3--3--3--3--3--3--3-- 
   E:--------------------------1--1--1--1--1--1--1--1-- 


   Verses: 

   e:--x--x--x--x--x--x--x--x--x--------x--x--x--x-----x--x--x--x-------- 
   B:--x--x--x--x--x--x--x--x--x--------x--x--x--x-----x--x--x--x-------- 
   G:--x--x--x--x--x--x--x--x--x--3-----x--x--x--x--3--x--x--x--x--3----- 
   D:--x--x--x--x--x--x--x--x--x--3-----x--x--x--x--3--x--x--x--x--3--3-- 
   A:--x--x--x--x--x--x--x--x--x--1--3--x--x--x--x--1--x--x--x--x--1--3-- 
   E:--x--x--x--x--x--x--x--x--x-----1--x--x--x--x-----x--x--x--x-----1-- 
[ Tab from: http://www.guitartabs.cc/tabs/g/gob/what_to_do_tab_ver_4.html ]
   e:--x--x--x--x--x--x--x--x--x--------x--x--x--x-------------------------- 
   B:--x--x--x--x--x--x--x--x--x--------x--x--x--x-------------------------- 
   G:--x--x--x--x--x--x--x--x--x--3-----x--x--x--x--7--7--7--7--8--8--8--8-- 
   D:--x--x--x--x--x--x--x--x--x--3--3--x--x--x--x--7--7--7--7--8--8--8--8-- 
   A:--x--x--x--x--x--x--x--x--x--1--3--x--x--x--x--5--5--5--5--6--6--6--6-- 
   E:--x--x--x--x--x--x--x--x--x-----1--x--x--x--x-------------------------- 


   Chorus: 

   e:-------------------------------------------------------------- 
   B:-------------------------------------------------------------- 
   G:--3--3--3--3--3--3--3--3--------------7--7--7--7--8--8--8--8-- 
   D:--3--3--3--3--3--3--3--3--3--3--3--3--7--7--7--7--8--8--8--8-- 
   A:--1--1--1--1--1--1--1--1--3--3--3--3--5--5--5--5--6--6--6--6-- 
   E:--------------------------1--1--1--1-------------------------- 


   "With you, anymooooooore" part: 

   e:-------------------------------------------------- 
   B:-------------------------------------------------- 
   G:--5--5--5--5--5--5--5--7--8--8--8--8-------------- 
   D:--5--5--5--5--5--5--5--7--8--8--8--8--8--8--8--8-- 
   A:--3--3--3--3--3--3--3--5--6--6--6--6--8--8--8--8-- 
   E:--------------------------------------6--6--6--6-- 


   really, really fast solo [part A]: 

   e:-------------------------------------------------------------------- 
   B:-------------------------------------------------------------------- 
   G:-------------------------------------------------------------------- 
   D:-------------------------------------------------------------------- 
   A:--------6--6--5--5--------------6--6--5--5--------------6--6--5--5-- 
   E:--6--6--------------6--6--4--4--------------6--6--3--3-------------- 

   e:-------------------------- 
   B:-------------------------- 
   G:-------------------------- 
   D:-------------------------- 
   A:--------------6--6--5--5-- 
   E:--6--6--1--1-------------- 


   really, really fast solo [part B]: 

   e:-------------------------------------------------------------------- 
   B:-------------------------------------------------------------------- 
   G:--------8--8--7--7--------------8--8--7--7--------------8--8--7--7-- 
   D:--8--8--8--8--7--7--8--8--6--6--8--8--7--7--8--8--5--5--8--8--7--7-- 
   A:--8--8--6--6--5--5--8--8--6--6--6--6--5--5--8--8--5--5--6--6--5--5-- 
   E:--6--6--------------6--6--4--4--------------6--6--3--3-------------- 

   e:-------------------------- 
   B:-------------------------- 
   G:--------------8--8--7--7-- 
   D:--8--8--3--3--8--8--7--7-- 
   A:--8--8--3--3--6--6--5--5-- 
   E:--6--6--1--1-------------- 


   whew! It's not as hard as it looks, trust me. 
   email any suggestions or comments to semikorny_boy@hotmail.com 
Comments