Gob - What To Do Chords & Tabs

 

What To Do Chords & Tabs

Gob Chords & Tabs

Version: 1 Type: Tab 0 ratings
1 star 2 stars 3 stars 4 stars 5 stars
comments

What To Do Tab

   
Song     : What To Do
Artist   : Gob
Tuning   : Flat (Eb, Ab, Db, Gb, Bb, Eb)
TAB      : Mike Eheler (supra-gt@home.com)
Comments : Gob rules.

INTRO
Eb:-----------------:-----------------:-----------------:-----------------:
Bb:-----------------:-5---4-------4---:-----------------:-5---4-------4---:
Gb:-------------4---:-------6---------:-4-----------4---:-------6---------:
Db:-----------------:-----------------:-----------------:-----------------:
Ab:-----------------:-----------------:-----------------:-----------------:
Eb:-----------------:-----------------:-----------------:-----------------:
  : GTR1
Eb:-----------------:-----------------:-----------------:-----------------:
Bb:-----------------:-----------------:-----------------:-----------------:
Gb:-----------------:-----------------:-4---4---4-4-4---:-4-4-4-4---4-4---:
Db:-----------------:-----------------:-4---4---4-4-4---:-4-4-4-4---4-4---:
Ab:-----------------:-----------------:-2---2---2-2-2---:-2-2-2-2---2-2---:
Eb:-----------------:-----------------:-----------------:-----------------:
    GTR2

Eb:-----------------:-----------------:-----------------:-----------------:
Bb:-----------------:-5---4-------4---:-5---------------:-5---4-------4---:
Gb:-------------4---:-------6---------:-------------4---:-------6---------:
Db:-6---------------:-----------------:-----------------:-----------------:
Ab:-----------------:-----------------:-----------------:-----------------:
Eb:-----------------:-----------------:-----------------:-----------------:
  : GTR1
Eb:-----------------:-----------------:-----------------:-----------------:
Bb:-----------------:-----------------:-----------------:-----------------:
Gb:-----------------:-----------------:-9---9---9-9-9---:-9-9-9-9---9-9---:
Db:-6---6---6-6-6---:-6-6-6-6---6-6---:-9---9---9-9-9---:-9-9-9-9---9-9---:
Ab:-6---6---6-6-6---:-6-6-6-6---6-6---:-7---7---7-7-7---:-7-7-7-7---7-7---:
Eb:-4---4---4-4-4---:-4-4-4-4---4-4---:-----------------:-----------------:
    GTR2

Eb:-----------------:-----------------:-----------------:
Bb:-----------------:-5---4-----------:-----------------:
Gb:-6-----------4---:-------6-----4---:-4---------------:
Db:-----------------:-----------------:-----------------:
Ab:-----------------:-----------------:-----------------:
Eb:-----------------:-----------------:-----------------:
  : GTR1
Eb:-----------------:-----------------:-----------------:
Bb:-----------------:-----------------:-----------------:
Gb:-----------------:-----------------:-----------------:
Db:-4---4---4-4-4---:-4-4-4-4---4-4---:-----------------:
Ab:-4---4---4-4-4---:-4-4-4-4---4-4---:- VERSE ---------:
Eb:-2---2---2-2-2---:-2-2-2-2---2-2---:-----------------:
    GTR2

VERSE
Eb:-----------------:-----------------:-----------------:-----------------:
Bb:-----X-X-X-X-X-X-:-X-X-X-X-X-X-----:-----X-X-X-X-----:-----X-X-X-X-----:
Gb:-4---X-X-X-X-X-X-:-X-X-X-X-X-X-4---:-----X-X-X-X-----:-----X-X-X-X-----:
Db:-4---X-X-X-X-X-X-:-X-X-X-X-X-X-4---:-4---X-X-X-X-4---:-2---X-X-X-X-2-2-:
Ab:-2---X-X-X-X-X-X-:-X-X-X-X-X-X-2---:-4---X-X-X-X-4---:-2---X-X-X-X-2-2-:
Eb:-----------------:-----------------:-2-----------2---:-0-----------0-0-:
[ Tab from: http://www.guitartabs.cc/tabs/g/gob/what_to_do_tab.html ]
Eb:-----------------:-----------------:-----------------:-----------------:
Bb:-----X-X-X-X-X-X-:-X-X-X-X-X-X-----:-----X-X-X-X-----:-----------------:
Gb:-4---X-X-X-X-X-X-:-X-X-X-X-X-X-4---:-----X-X-X-X-----:-8/9-9-9-9-9-9-9-:
Db:-4---X-X-X-X-X-X-:-X-X-X-X-X-X-4---:-4---X-X-X-X-4---:-8/9-9-9-9-9-9-9-:
Ab:-2---X-X-X-X-X-X-:-X-X-X-X-X-X-2---:-4---X-X-X-X-4---:-6/7-7-7-7-7-7-7-:
Eb:-----------------:-----------------:-2-----------2---:-----------------:

CHORUS
Eb:-----------------:-----------------:-----------------:-----------------:
Bb:-----------------:-----------------:-----------------:-----------------:
Gb:-4---4-4-4-4-4-4-:-4-4-4-4-4-4-4-4-:-----------------:-8/9-9-9-9-9-9-9-:
Db:-4---4-4-4-4-4-4-:-4-4-4-4-4-4-4-4-:-4---4-4-4-4-4-4-:-8/9-9-9-9-9-9-9-:
Ab:-2---2-2-2-2-2-2-:-2-2-2-2-2-2-2-2-:-4---4-4-4-4-4-4-:-6/7-7-7-7-7-7-7-:
Eb:-----------------:-----------------:-2---2-2-2-2-2-2-:-----------------:

BRIDGE
Eb:-----------------:-----------------:-----------------:-----------------:
Bb:-----------------:-----------------:-----------------:-----------------:
Gb:-6---6-6-6-6-6-6-:-6-6-6-6-6-6-8---:-9---9-9-9-9-9-9-:-----------------:
Db:-6---6-6-6-6-6-6-:-6-6-6-6-6-6-8---:-9---9-9-9-9-9-7-:-9---9-4---4-4-4-:
Ab:-4---4-4-4-4-4-4-:-4-4-4-4-4-4-6---:-7---7-7-7-7-7-7-:-9---9-4---4-4-4-:
Eb:-----------------:-----------------:-----------------:-7---7-2---2-2-2-:

INTERLUDE
Eb:-----------------:-----------------:-----------------:-----------------:
Bb:-----------------:-----------------:-----------------:-----------------:
Gb:-----------------:-----------------:-----------------:-----------------:
Db:-----------------:-----------------:-----------------:-----------------:
Ab:-----7-7-6-6-----:-----7-7-6-6-----:-----7-7-6-6-----:-----7-7-6-6-----:
Eb:-7-7---------7-7-:-4-4---------4-4-:-2-2---------2-2-:-0-0---------0-0-:

INTERLUDE RHYTHM
Eb:-----------------:-----------------:-----------------:-----------------:
Bb:-----------------:-----------------:-----------------:-----------------:
Gb:-4-4---------4-4-:-----------------:-----------------:-----------------:
Db:-4-4---------4-4-:-6-6---------6-6-:-4-4---------4-4-:-2---------------:
Ab:-2-2---------2-2-:-6-6---------6-6-:-4-4---------4-4-:-2---------------:
Eb:-----------------:-4-4---------4-4-:-2-2---------2-2-:-0---------------:
    1st time
Eb:-----------------:-----------------:-----------------:-----------------:
Bb:-----------------:-----------------:-----------------:-----------------:
Gb:-4-------------4-:-----------------:-----------------:-----------------:
Db:-4-------------4-:-6-------------6-:-4-------------4-:-2-------------2-:
Ab:-2-------------2-:-6-------------6-:-4-------------4-:-2-------------2-:
Eb:-----------------:-4-------------4-:-2-------------2-:-0-------------0-:
    all the rest

Also, if you want to play the little "na na na na na na na na" part then
this is how it's done on guitar:

Eb:-----------------:-----------------:
Bb:-----------------:-----------------:
Gb:-9-----------9---:-8-----------8---:
Db:-----9---6-------:-----9-----------:
Ab:-----------------:---------9-------:
Eb:-----------------:-----------------:

The song proceeds as follows;

INTRO
VERSE
CHORUS
INTRO
VERSE
CHORUS
BRIDGE
INTERLUDE w/ INTERLUDE RHYTHM (2nd time)
BRIDGE
Comments