Gob - This Evil World Chords & Tabs

 

This Evil World Chords & Tabs

Gob Chords & Tabs

Version: 1 Type: Tab 0 ratings
1 star 2 stars 3 stars 4 stars 5 stars
comments

This Evil World Tab

   
This song is awesome! here is how i play it
Song: This Evil World
Band: Gob
Tuning: tuned half step down

Listen to song for timing and strumming pattern!

Intro and Verse:
Eb|-----------------------------------2-2-2-2-2-2-2-2-3-3-----3-3------|
Ab|-2-2-2-2-2-2-2-2-1-2-2-2-2-2-2-2-2-4-4-4-4-4-4-4-4-5-5-5-5-5-5-5-5--|
Db|-4-4-4-4-4-4-4-4-3-4-4-4-4-4-4-4-4-4-4-4-4-4-4-4-4-5-5-7-7-5-5-7-7--|
Bb|-4-4-4-4-4-4-4-4-3-4-4-4-4-4-4-4-4---------------------7-7-----7-7--|
Gb|--------------------------------------------------------------------|
eb|--------------------------------------------------------------------|

  |5-5-5-5-2-2-2-2-|
  |7-7-7-7-4-4-4-4-|
  |7-7-7-7-4-4-4-4-|   Repeat from after 1  2 times and hold last 2
  |----------------|                     3                        4
  |----------------|                     3                        4
  |----------------|
[ Tab from: http://www.guitartabs.cc/tabs/g/gob/this_evil_world_tab.html ]
Chorus:
  |3-3-3-3-3---------------------7-7/-8--8\3-|
  |5-5-5-5-5-5-5-5-5-5-7-7-7-7-7-9-9/10-10\5-|
  |5-5-5-5-5-7-7-7-7-7-9-9-9-9-9-9-9/10-10\5-| repeat and then....
  |----------7-7-7-7-7-9-9-9-9-9-------------|
  |------------------------------------------|
  |------------------------------------------|

  |3-3-3-3-3-------------------5/6-|
  |5-5-5-5-5-5-5-5-5-5---------7/8-|
  |5-5-5-5-5-7-7-7-7-7--pause--7/8-|
  |----------7-7-7-7-7-------------|
  |--------------------------------|
  |--------------------------------|

Solo:
Eb|-------------------------------------------|
Ab|-------------------------------------------|
Db|-------------------------------------------|
Bb|-7---7h9/11--7---7h9/11p9--11p9h11p9\7-----|h9p7  repeat 2x then.....
Gb|-------------------------------------------|
eb|-------------------------------------------|

Eb|-----------|
Ab|-----------|
Db|9/11p9\7h9-
Bb|-----------|
Gb|-----------|
eb|-----------|  then repeat 1st part of solo 2x

Chorus: (key change)
Eb|4-4-4-4-4---------------------------8--8/9--9--|
Ab|6-6-6-6-6-6-6-6-6-6--8--8--8--8--8-10-10/11-11-|
Db|6-6-6-6-6-8-8-8-8-8-10-10-10-10-10-10-10/11-11-|   repeat with the song
Bb|----------8-8-8-8-8-10-10-10-10-10-------------|
Gb|-----------------------------------------------|
eb|-----------------------------------------------|

End on:
Eb|3\
Ab|5\
Db|5\
Bb|-
Gb|-
Eb|-
Comments