Gob - Suds Chords & Tabs

 

Suds Chords & Tabs

Gob Chords & Tabs

Version: 1 Type: Bass Tab

Suds Bass Tab

intro/verse
------------------------------------|
---------------------------66666666-|
-66666666-88888888------------------|
------------------------88----------| 10X

chorus
--------------------------|
----------------------6-8-|
-6666666666666666-8-------|
--------------------8-----| 4X

intro/verse
------------------------------------|
---------------------------66666666-|
-66666666-88888888------------------|
------------------------88----------| 4X

chorus
--------------------------|
----------------------6-8-|
-6666666666666666-8-------|
--------------------8-----| 4X
[ Tab from: http://www.guitartabs.cc/tabs/g/gob/suds_btab.html ]
intro/verse
------------------------------------|
---------------------------66666666-|
-66666666-88888888------------------|
------------------------88----------| 4X

bridge
-8-7-10-101010101010-8-7-8-10-1010101010-|
-----------------------------------------|
-----------------------------------------|
-----------------------------------------| 4X

intro/verse
------------------------------------|
---------------------------66666666-|
-66666666-88888888------------------|
------------------------88----------| 3X

intro/verse
-----------------------------|
---------------------------6-|
-66666666-88888888-----------|
------------------------88---|