Gob - Soda Chords & Tabs

 

Soda Chords & Tabs

Gob Chords & Tabs

Version: 2 Type: Bass Tab 0 ratings
1 star 2 stars 3 stars 4 stars 5 stars
comments

Soda Bass Tab

Soda - gob
tabbed by: ryan b

Riff A: (once)
A---------------3333-4444--
E--3----3----3-------------

Riff B: (once)
A--------------7-7--7-77-7-3-3--3-33-3--------------
E--3-3--3-33-3-------------------------3-3--3-33-3--

Riff C: (once)
A--------------7-7--7-77-7-3-3--3-33-3--------------
E--3-3--3-33-3-------------------------3--33--------

***break for "Like I knew..." (0:15)***

Riff B: (3 times)
[ Tab from: http://www.guitartabs.cc/tabs/g/gob/soda_btab_ver_2.html ]
Riff D: (once)
A--------------7-7--7-77-7-3-3--3-33-3-2-2--2-22-2--
E--3-3--3-33-3--------------------------------------

Riff E: (once)
A--7-7-5-55-3-3-3333-33----------5555-3333--
E-----------------------33333333------------

Riff F: (once)
A--7-7-5-55-3-3-3333-33----------5555-33333333-33333333-3--
E-----------------------33333333---------------------------

Riff A: (once)
Riff B: (3 times)
Riff D: (once)
Riff E: (3 times)
Riff F: (once)

Comments