Gob - Sleepyhead Chords & Tabs

 

Sleepyhead Chords & Tabs

Gob Chords & Tabs

Version: 2 Type: Tab 0 ratings
1 star 2 stars 3 stars 4 stars 5 stars
comments

Sleepyhead Tab

Band: Gob
Song: Sleepyhead
Cd: The World According To Gob
By: Justin Joseph (fukeneh@anti-social.com)

Drop D tuning

Intro:
Guitar 1 Guitar 2
e|------------|---------------------------------------------------------6----|
B|------------|---7------7-----7--------7-----7-----7-------7-----7----------|
G|---4--3-----|-------6-----6-----6--------6-----6-----6-------6-----6-------|
D|---------4--|--------------------------------------------------------------|
A|------------|--------------------------------------------------------------|
E|------------|--------------------------------------------------------------|
Guitar 1 plays four times then guitar 2 comes in

Verse 1
Guitar 1 Guitar 2
e|--------------------------|------------------------------------------------|
B|--------------------------|---12----9---11---------------------------------|
G|--4-----------------------|------------------------------------------------|
D|--4-----6-----1-----4-----|---9-----6---8----------------------------------|
A|--2-----6-----1-----4-----|------------------------------------------------|
E|--------6-----1-----4-----|------------------------------------------------|
Play twice

Verse 2
Both guitars
e|---------------------------------------------------------------------------|
B|---------------------------------------------------------------------------|
G|------4--------------------------------------------------------------------|
D|------4-------6-------1--------4-------------------------------------------|
A|------2-------6-------1--------4-------------------------------------------|
E|--------------6-------1--------4-------------------------------------------|
Play twice with palm muting
[ Tab from: http://www.guitartabs.cc/tabs/g/gob/sleepyhead_tab_ver_2.html ]
Pre-Chorus
Both guitars
e|---------------------------------------------------------------------------|
B|---------------------------------------------------------------------------|
G|----4--------------3-------4-----------------------------------------------|
D|----4------6-------3-------4-----------------------------------------------|
A|----2------6-------1-------2-----------------------------------------------|
E|-----------6---------------------------------------------------------------|

Chorus
Guitar 1
e|---------------------------------------------------------------------------|
B|---------------------------------------------------------------------------|
G|----------------------------------4----------------------------------------|
D|----4------6-------4-------1------4----------------------------------------|
A|----4------6-------4-------1------2----------------------------------------|
E|----4------6-------4-------1-----------------------------------------------|

Chorus
Guitar 2
e|-----------------------------------------|---------------------------------|
B|-----------------------------------------|---------------------------------|
G|----11--11--11---10--10--10--10--11--10--|--11--8---11--13---15---8--------|
D|-----------------------------------------|---------------------------------|
A|-----------------------------------------|--9---6---9---11---13---6--------|
E|-----------------------------------------|---------------------------------|
Play 4X

Bridge/Outro
Both Guitars
e|-----------------------------------------|---------------------------------|
B|-----------------------------------------|---------------------------------|
G|----4---6---4---6---4---6---4---6----4---|---4-----------------------------|
D|-------------------------------------4---|---2-----------------------------|
A|-----------------------------------------|---------------------------------|
E|-----------------------------------------|---------------------------------|
Play 3X

Great song off of The World According To Gob cd, if you find any errors send
em to me at fukeneh@anti-social.com.
Comments