Gob - Nothing New Chords & Tabs

 

Nothing New Chords & Tabs

Gob Chords & Tabs

Version: 1 Type: Tab 0 ratings
1 star 2 stars 3 stars 4 stars 5 stars
comments

Nothing New Tab

Artist:  Gob
Title:  Nothings New

I know this is 100% correct
Your just gonna have to listen to the song to figure out where all the verses and stuff go

intro x4
---------------------------------------------------------
---------------------------------------------------------
------------------3--5-----5--3--------------------------
------5--6----------------------------6--5-----6--5------
--3---------4----------------------6--------6---------6--
-------------------------4-------------------------------

---------------------------------------------------------
---------------------------------------------------------
------------------3--5-----5--3--------------------------
------5--6----------------------------6--5-----8--6--5---
--3---------4----------------------6--------6------------
-------------------------4-------------------------------
[ Tab from: http://www.guitartabs.cc/tabs/g/gob/nothing_new_tab.html ]
verse
-------------------------------------------------------------------
-------------------------------------------------------------------
--5-5-5-5-5-5-5-5-6-6-6-6-6-6-6-6-----------------8-8-8-8-8-8-8-8--
--5-5-5-5-5-5-5-5-6-6-6-6-6-6-6-6-6-6-6-6-6-6-6-6-8-8-8-8-8-8-8-8--
--3-3-3-3-3-3-3-3-4-4-4-4-4-4-4-4-6-6-6-6-6-6-6-6-6-6-6-6-6-6-6-6--
----------------------------------4-4-4-4-4-4-4-4------------------



-------------------------------------------------------------------
-------------------------------------------------------------------
--5-5-x-5-5-x-6-6-x-6-6-x-8-8-x-8-8-x------------------------------
--5-5-x-5-5-x-6-6-x-6-6-x-8-8-x-8-8-x---------------------3-3-3-3--
--3-3-x-3-3-x-4-4-x-4-4-x-6-6-x-6-6-x---------------------3-3-3-3--
----------------------------------------------------------1-1-1-1—-


-------------------------------------------------------------------
-------------------------------------------------------------------
--5-5-5-5-5-5-5-5-6-6-6-6-6-6-6-6-8-8-8-8-8-8-8-8------------------
--5-5-5-5-5-5-5-5-6-6-6-6-6-6-6-6-8-8-8-8-8-8-8-8---------3-3-3-3--
--3-3-3-3-3-3-3-3-4-4-4-4-4-4-4-4-6-6-6-6-6-6-6-6---------3-3-3-3--
----------------------------------------------------------1-1-1-1--

you need 2 guitars for this song and they basically just play the same thing over.  Just listen and you will be able to figure it out.  Good Luck!
Comments