Gob - Ming Tran Chords & Tabs

 

Ming Tran Chords & Tabs

Gob Chords & Tabs

Version: 1 Type: Bass Tab

Ming Tran Bass Tab

intro
--------------------|
------------4-------|
-1----4-------------|
-----------------4--|

intro/chorus
--------------------------------------|
-----222222222222--22222--------------|
--------------------------------------|
-444-------------44--------22222222---| 2X

verse
----------------------------------|
---------22222222--------44444444-|
-----------------22222222---------|
-44444444-------------------------| 4X

intro/chorus
--------------------------------------|
-----222222222222--22222--------------|
--------------------------------------|
-444-------------44--------22222222---| 2X

verse
----------------------------------|
---------22222222--------44444444-|
-----------------22222222---------|
-44444444-------------------------| 4X
[ Tab from: http://www.guitartabs.cc/tabs/g/gob/ming_tran_btab.html ]
intro/chorus
--------------------------------------|
-----222222222222--22222--------------|
--------------------------------------|
-444-------------44--------22222222---| 4X

bridge
-----------------------------|
----------------------4------|
-1------4------1-------------|
-----------------------------| 2X

-----------------------------|
--------2-------------4------|
---------------2-------------|
-4---------------------------| 2X

verse
----------------------------------|
---------22222222--------44444444-|
-----------------22222222---------|
-44444444-------------------------| 2X

intro/chorus
--------------------------------------|
-----222222222222--22222--------------|
--------------------------------------|
-444-------------44--------22222222---| 4X

outro
-------|
-------|
-------|
-44444-