Gob - Marlena Chords & Tabs

 

Gob Chords & Tabs

Version: 1 Type: Tab 0 ratings
1 star 2 stars 3 stars 4 stars 5 stars
comments

Marlena Tab

#----------------------------------PLEASE NOTE---------------------------------#
#This file is the author's own work and represents their interpretation of the #
#song. You may only use this file for private study, scholarship, or research. #
#------------------------------------------------------------------------------#

Song: Marlena
Band: Gob
Tabbed by: Mit (send_in_the_klowns@hotmail.com)


Intro:
e|--------------------------------------------------------------------|
B|--------------------------------------------------------------------|
G|--------------------------------------------------------------------|
D|--------------------------------------------------------------------|
A|-3-3---3-3-3---3-3-3-3-3----3(10-strums)----------------------------|
E|-----3-------3-----------3------------------------------------------|
[ Tab from: http://www.guitartabs.cc/tabs/g/gob/marlena_tab.html ]
Verse:   |Chorus: |Break:
e|-------|--------|---------------------------------------------------|
B|-------|--------|---------------------------------------------------|
G|---3---|---5----|---------------------------------------------------|
D|-5-3-3-|-5-5----|-3-------------------------------------------------|
A|-5-1-3-|-5-3----|-3-------------------------------------------------|
E|-3---1-|-3------|-1-------------------------------------------------|

Break 2:                |Bridge:
e|----------------------|---------------------------------------------|
B|----------------------|---------------------------------------------|
G|-----8-8--5---8-8-5---|-3---8-3---3-8-------------------------------|
D|-3---8-8--5-6-8-8-5-6-|-3-3-8-3-3-3-8-------------------------------|
A|-3---6-6--3-6-6-6-3-6-|-1-3-6-1-3-5-6-------------------------------|
E|-1-,--------4-------4-|---1-----1-----------------------------------|

Intro,Verse,Chorus,Break1,Verse,Chorus,Break 2, Bridge, Break 2, Bridge
song ends on A sharp
Comments