Gob - Ive Been Up These Steps Chords & Tabs

 

Ive Been Up These Steps Chords & Tabs

Gob Chords & Tabs

Version: 2 Type: Tab 0 ratings
1 star 2 stars 3 stars 4 stars 5 stars
comments

Ive Been Up These Steps Tab

   
-----------------------------------------------------------------------------
	            I've Been up These Steps - GOB
-----------------------------------------------------------------------------
Tabbed by:Peter Cooper
Email:pkfudge@hotmail.com

Tuning:Standard - EADGBe
[ Tab from: http://www.guitartabs.cc/tabs/g/gob/ive_been_up_these_steps_tab_ver_2.html ]
Use your first finger to mute E string on powerchords with muted strings.
e|---------------------------------------------------------------------------|
B|---------------------------------------------------------------------------|
G|---------------------------------------------------------------------------|
D|-3-3-3-3--3-3-3-3--6-6-6-6--6-6-6-6--1-1-1-1-1-1-1-1-1-1-1-1-1-1-1-1-------|
A|-1-1-1-1--3-3-3-3--4-4-4-4--6-6-6-6--1-1-1-1-1-1-1-1-1-1-1-1-1-1-1-1-------|
E|-x-x-x-x--1-1-1-1--x-x-x-x--4-4-4-4--x-x-x-x-x-x-x-x-x-x-x-x-x-x-x-x-------|
 pm. . . .  . . . .  . . . .  . . . .  . . . . . . . . . . . . . . . .
                              repeat

            If it's easier, you can also play it this way...
e|---------------------------------------------------------------------------|
B|---------------------------------------------------------------------------|
G|---------------------------------------------------------------------------|
D|---------------------------------------------------------------------------|
A|-8-8-8-8--3-3-3-3--11-11-11-11--6-6-6-6--1-1-1-1-1-1-1-1-1-1-1-1-1-1-1-1---|
E|-6-6-6-6--1-1-1-1--9--9--9--9---4-4-4-4--1-1-1-1-1-1-1-1-1-1-1-1-1-1-1-1---|
 pm. . . .  . . . .  .  .  .  .   . . . .  . . . . . . . . . . . . . . . .
                            repeat

      Key:
 pm.  palm mute
 /  slide up
 \  slide down
 h  hammer-on
 p  pull-off
 ~  vibrato
 +  harmonic
 x  Mute note
==========================================================================
Any questions/comments?: E-Mail me at pkfudge@hotmail.com
Comments