Gob - Ive Been Up These Steps Chords & Tabs

 

Ive Been Up These Steps Chords & Tabs

Gob Chords & Tabs

Version: 1 Type: Tab 0 ratings
1 star 2 stars 3 stars 4 stars 5 stars
comments

Ive Been Up These Steps Tab

-------------------------------------------------------------------------------
			     I'VE BEEN UP THESE STEPS - Gob
-------------------------------------------------------------------------------

Tabbed by: Matt Longpre
Email: nemesis_257@shaw.ca

Tuning: Eb (tune all your strings down a half tone)

This is a brand new one off of Foot In Mouth Disease.

Riff 1
eb|-----------------------00--00--00--00--------------------------------------|
Bb|-----------------------00--00--00--00--------------------------------------|
Gb|-4444------7777------------------------------------------------------------|
Db|-4444-4444-7777-7777-2222222222222222--------------------------------------|
Ab|-2222-4444-5555-7777-2222222222222222--------------------------------------|
Eb|------2222------5555-0000000000000000--------------------------------------|
[ Tab from: http://www.guitartabs.cc/tabs/g/gob/ive_been_up_these_steps_tab.html ]
Riff 2
eb|---------------------------------------------------------------------------|
Bb|---------------------------------------------------------------------------|
Gb|---------------------------------------------------------------------------|
Db|-55555555-22222222---------------------------------------------------------|
Ab|-55555555-22222222---------------------------------------------------------|
Eb|-33333333-00000000---------------------------------------------------------|

Riff 3
eb|---------------------------------------------------------------------------|
Bb|---------------------------------------------------------------------------|
Gb|----------77---------------------------------------------------------------|
Db|-55555555-77-7777----------------------------------------------------------|
Ab|-55555555-55-7777----------------------------------------------------------|
Eb|-33333333----5555----------------------------------------------------------|

Riff 4
eb|---------------------------------------------------------------------------|
Bb|---------------------------------------------------------------------------|
Gb|---------------------------------------------------------------------------|
Db|-------------------222-----------------------------------------------------|
Ab|-000-22-555-----22---------------------------------------------------------|
Eb|------------000------------------------------------------------------------|

That should get you through the whole song.  Email me if you have questions.

===============================================================================
Comments