Gob - Hooray Chords & Tabs

 

Hooray Chords & Tabs

Gob Chords & Tabs

Version: 1 Type: Tab 0 ratings
1 star 2 stars 3 stars 4 stars 5 stars
comments

Hooray Tab

-------------------------------------------------------------------------------
HOORAY (HE'S GAY) - Gob
-------------------------------------------------------------------------------

- By: Punkin Grandma alias Francois Caron-Soucy

NOTE: The tabs of this song are very rare so I decided doing one
by myself so it isn't absolutely perfect (their are no palm
mutes written) but I think you can find those things by yourself
cause GOB does a lot of those and their are too much...

INTRO
Bass Line:
|----------------------------------------------------------------|
|-------------------2--3-----2---------------------2-------------|
|--3--3--3--3--3-------------------3--3--3--3--3------0----------|
|-------------------------------------------------------------3--|

Guitar
Play only at the end...
e|---------------------------------------------------------------|
B|---------------------------------------------------------------|
G|---------------------------------------------------------------|
D|---5--5--5--5--------------------------------------------------|
A|---5--5--5--5--------------------------------------------------|
E|---3--3--3--3--------------------------------------------------|

VERSE
Guitar 1
1st time 2nd time
e|---------------------|------------------|----------------------|
B|---------------------|------------------|----------------------|
G|--5---5----9----10---|-5---5----9-------|----------------------|
D|--5---5----9----10---|-5---5----9----7--|--5-------------------|
A|--3---3----7----8----|-3---3----7----7--|--5-------------------|
E|---------------------|---------------5--|--3-------------------|
[ Tab from: http://www.guitartabs.cc/tabs/g/gob/hooray_tab.html ]
Guitar 2
1st time 2nd time
e|---------------------|------------------|----------------------|
B|---------------------|------------------|----------------------|
G|--5---5----9----10---|-5---5----9-------|--12-----10-----------|
D|--5---5----9----10---|-5---5----9----7--|--12-----10-----------|
A|--3---3----7----8----|-3---3----7----7--|--10-----8------------|
E|---------------------|---------------5--|----------------------|

CHORUS
Guitar 1
e|---------------------------------------------------------------|
B|---------------------------------------------------------------|
G|-------5---5--5------------------------------------------------|
D|---5---5---5--5------------------------------------------------|
A|---5---3---3--3------------------------------------------------|
E|---3-----------------------------------------------------------|

Guitar 2
e|------------------|--------------------------------------------|
B|--------X2--------|--------------------------------------------|
G|-------5---9--10--|-----5--------------------------------------|
D|---5---5---9--10--|-5---5---5~-----5----3----5-----------------|
A|---5---3---7--8---|-5---3---5~-----5----3----5-----------------|
E|---3--------------|-3-------3~-----3----1----3-----------------|

BRIDGE

Guitar 1
e|-----------------|
B|-----------------|
G|-----------------|
D|---5---3---5-----|
A|---5---3---3-----|
E|---3---1---3-----|

Guitar 2
e|-----------------|
B|-----------------|
G|-----------------|
D|---5---3---5-----|
A|---5---3---3-----|
E|---3---1---3-----|

SOLO
Guitar 1
All of this 2 times...
e|-----------------------|-------------------0--1--0-----0-------|
B|--1--1--1--0--1--3--1--|-1--1--1--0--1--3-----------3-----3--1-|
G|-----------------------|---------------------------------------|
D|-------X3--------------|----------------X1---------------------|
A|-----------------------|---------------------------------------|
E|-----------------------|---------------------------------------|

-------------------------------------------------------------------------------
Comments