Gob - Give Up The Grudge Chords & Tabs

 

Give Up The Grudge Chords & Tabs

Gob Chords & Tabs

Version: 2 Type: Tab 0 ratings
1 star 2 stars 3 stars 4 stars 5 stars
comments

Give Up The Grudge Tab

artist: gob
song: give up the grudge
album: foot in mouth disease
tuning: normal
tabbed by: Jordan Goodman

This is my first tab so some parts will be wrong but I tried.  This is an awsome song!

intro -all up and down struming
e|--------------------------------------------------------------|
B|--------------------------------------------------------------|
G|--------------------------------------------------------------|
D|----9-9-9---7-7-7---6-6-6---5-5-5---4-4---3---9-9-9---7-7-7---|
A|----9-9-9---7-7-7---6-6-6---5-5-5---4-4---3---9-9-9---7-7-7---|
E|----7-7-7---5-5-5---4-4-4---3-3-3---2-2---1---7-7-7---5-5-5---|

e|------------------------------|
B|------------------------------|
G|--------------------7-7---6---|
D|----6-6-6---5-5-5---7-7---6---|
A|----6-6-6---5-5-5---5-5---4---|
E|----4-4-4---3-3-3-------------|

I'm not to sure about this part but they play this with some crazy effect.
e|--12-12-13-13-12-13--12-12-13-13-12-13--12-12-13-13-12-13--12-12-13-13-12---|
B|----------------------------------------------------------------------------|
G|----------------------------------------------------------------------------|
D|----------------------------------------------------------------------------|
A|----------------------------------------------------------------------------|
E|----------------------------------------------------------------------------|

verse

Then base comes in.
Then they start singing "so start bleeding your fake blood" and the guitar plays...
e|----------------------------------------------------------------------------|
B|----------------------------------------------------------------------------|
G|----------------------------------------------------------------------------|
D|--77777777---22222222---77777777---222222-2---77777777---22222222-77-77777--|
A|--77777777---22222222---77777777---222222-2---77777777---22222222-77-77777--|
E|--55555555---00000000---55555555---000000-0---55555555---00000000-55-55555--|
p.m........................................     ......................

Then right after the last chord of verse do a PICKSLIDE!
[ Tab from: http://www.guitartabs.cc/tabs/g/gob/give_up_the_grudge_tab_ver_2.html ]
Chorus -do twice (2x)
e|---------------------------------------------------|
B|---------------------------------------------------|
G|---------------------------------------------------|
D|--7777--2222--7777--2222--7777--2222--6666--4444---|
A|--7777--2222--7777--2222--7777--2222--6666--4444---|
E|--5555--0000--5555--0000--5555--0000--4444--2222---|

solo -some parts are wrong but you can try to correct it.
e|--------------------------------------------------------------|
B|--555/7-9-9-9-9-10-10/9-7-5555-555/7-9-9-9-9-10-10/9-7-5555---|
G|--------------------------------------------------------------|
D|--------------------------------------------------------------|
A|--------------------------------------------------------------|
E|--------------------------------------------------------------|

e|--10-10-10/12-14-14-14-14-15-15/14-12-10---99h11p9/8888-66h8p6/4-444---|
B|-----------------------------------------------------------------------|
G|-----------------------------------------------------------------------|
D|-----------------------------------------------------------------------|
A|-----------------------------------------------------------------------|
E|-----------------------------------------------------------------------|

e|-----7-----7-------9h11p9/8---------------------------------|
B|--8/9---8/9---8/9-----------9h11p9/8------------------------|
G|-------------------------------------9h11p9/8---------------|
D|----------------------------------------------9h11p9/8------|
A|--------------------------------------------------------9---|
E|------------------------------------------------------------|

After solo part
e|-------------------------------------------|\
B|-------------------------------------------| \
G|-------------------------------------------|  2x
D|-------------------------------------------|  /
A|--7777-2222-7777-2222-7777-2222-6666-4444--| /
E|--5555-0000-5555-0000-5555-0000-4444-2222--|/
p.m........................................

Then...

e|--------------------------------------------|\
B|--------------------------------------------| \
G|--------------------------------------------|  2x
D|--------------------------------------------|  /
A|--77-7-22-2-77-7-22-2-77-7-22-2-66-6-44-4---| /
E|--55-5-00-0-55-5-00-0-55-5-00-0-44-4-22-2---|/
p.m...   ..   ..   ..   ..   ..   ..   ..  

Then play the chorus 6 times.

outro -all up and down strumming

e|-----------------------------|
B|-----------------------------|
G|----------------------77-6---|
D|--999--777--666--444--77-6---|
A|--999--777--666--444--55-4---|
E|--777--555--444--222---------|

That's it, enjoy!
Comments