Gob - For The Moment Chords & Tabs

 

For The Moment Chords & Tabs

Gob Chords & Tabs

Version: 2 Type: Tab 0 ratings
1 star 2 stars 3 stars 4 stars 5 stars
comments

For The Moment Tab

   
Song: For the Moment
Artist: Gob
Album: The World According to Gob
As tabbed by Joe Muggah	

My other version of this is terribly wrong, mostly because
of my lack of an e-string, but here is the better version.
This is the way they played it live from what I saw too.

Tuned down 1/2 step

Intro A (Guitar 1, all harmonics)
eb--------------------------------------------------------
Bb--------------------------------------------------------
Gb--7------------------7----------------------------------
Db---------7-7----------------7-7-------------------------
Ab------9--------7---------9--------7---------------------
Eb--------------------------------------------------------

Intro B (Guitar 2, all harmonics)
eb--------------------------------------------------------
Bb--------------------------------------------------------
Gb--7-7------------------------7-7------------------------
Db------------7-7-------7-7--------------7-7-------7-7----
Ab-------9-9-------7-7--------------9-9-------7-7---------
Eb--------------------------------------------------------

Verse A (Guitar 1, each hit 2 times)              
eb--------------------------------------------------------
Bb--------------------------------------------------------
Gb--7---------------9-9-9-9-9-9-9-9-9-9-------------------
Db--7--7-7-7-7-7-7--9-9-9-9-9-9-9-9-9-9--9--4-4-4-4-4-4---
Ab--5--7-7-7-7-7-7--7-7-7-7-7-7-7-7-7-7--9--4-4-4-4-4-4---
Eb-----5-5-5-5-5-5-----------------------7--2-2-2-2-2-2---
("Go away...")

Verse B (Guitar 2, each hit 2 times)
eb--------------------------------------------------------
Bb--------------------------------------------------------
Gb--7---------------9-9-9-9-------------------------------
Db--7--7-7-7-7-7-7--9-9-9-9--7--9--7--6--7---4-4-4--------
Ab--5--7-7-7-7-7-7--7-7-7-7-------------------------------
Eb-----5-5-5-5-5-5----------------------------------------

Fill 1                   Fill 2
eb---------------------|----------------------------------
Bb---------------------|----------------------------------
Gb--7m-7m-7m-7m-7m-7m--|----------------------------------
Db--7m-7m-7m-7m-7m-7m--|--4--7----------------------------
Ab--5m-5m-5m-5m-5m-5m--|--4--7----------------------------
Eb---------------------|--2--5----------------------------

Pre-Chorus A (Guitar 1, each hit 2 times and palm muted)
eb--------------------------------------------------------
Bb--------------------------------------------------------
Gb--9-9-9-9-9-9--11-11-11-11-11-11------------------------
Db--9-9-9-9-9-9--11-11-11-11-11-11------------------------
Ab--7-7-7-7-7-7---9--9--9--9--9--9------------------------
Eb--------------------------------------------------------
("I cling to you for survival...")

Pre-Chorus B (Guitar 2, each hit 2 times and palm muted)
eb-------------------------------------|------------------
Bb-------------------------------------|------------------
Gb-------------------------------------|------------------
Db------6-6-9-9-6-6------7-7-11-11-7-7-|------------------
Ab--7-7--------------9-9---------------|-5-5-5-4-4-4--12\-
Eb-------------------------------------|------------------

Chorus (each hit 2 times)                end on
eb----------------------------------------|---------------
Bb----------------------------------------|---------------
Gb----------------------------------------|-----7-7-7-7-7-
Db--2-2-2-2-2-2--4-4-4-4-4-4--2-2-2-2-2-2-|-4-2-7-7-7-7-7-
Ab--2-2-2-2-2-2--4-4-4-4-4-4--2-2-2-2-2-2-|-4-2-5-5-5-5-5-
Eb--0-0-0-0-0-0--2-2-2-2-2-2--0-0-0-0-0-0-|-2-0-----------
("You don't have to stay for the moment...")

Solo 1
eb-------|-0-0-0-0-0--0----0-0-0-0-0-0-0-0--0-0-0--4-4----
Bb-0-0-0-|-5-5-5-5-5--2/5--7-7-2-2-2-2-2-2--5-7-7--0-0----
Gb-------|------------------------------------------------
Db-------|------------------------------------------------
Ab-------|------------------------------------------------
Eb-------|------------------------------------------------
[ Tab from: http://www.guitartabs.cc/tabs/g/gob/for_the_moment_tab_ver_2.html ]
(continued)
eb--2-2--0-0--0-0-0--5--4--2--2-2-2-2-2--0h2---0-0-0-0-0--
Bb--0-0--0-0--3-3-3--0--0--0--0-0-0-0-0--0-----5-5-5-5-5--
Gb--------------------------------------------------------
Db--------------------------------------------------------
Ab--------------------------------------------------------
Eb--------------------------------------------------------

(continued)
eb--0----0-0-0-0-0-0-0-0--0-0-0--4-4--2-2--0-0--0-0-0-----
Bb--2/5--7-7-2-2-2-2-2-2--5-7-7--0-0--0-0--0-0--3-3-3-----
Gb--------------------------------------------------------
Db--------------------------------------------------------
Ab--------------------------------------------------------
Eb--------------------------------------------------------

(continued)
eb--5--4--2----5--4--2------------------------------------
Bb--0--0--0----0--0--0------------------------------------
Gb--------------------------------------------------------
Db--------------------------------------------------------
Ab--------------------------------------------------------
Eb--------------------------------------------------------

Solo 2A (Guitar 1)
eb--------------------------------------------------------
Bb--------------------------------------------------------
Gb------------------------------------7--7-7-7-7-7-7------
Db--2-2-2-2-2-2-2-2-2-2-2-2---7---6---7--7-7-7-7-7-7------
Ab--2-2-2-2-2-2-2-2-2-2-2-2---7---6---5--5-5-5-5-5-5------
Eb--0-0-0-0-0-0-0-0-0-0-0-0---5---4-----------------------

Solo 2B (Guitar 2)
eb--5-5--4-4--2--2-2-2-2---0--0--0-0--0--0-0-0-0----------
Bb--0-0--0-0--0--0-0-0-0--10-10--9-9--7--7-7-7-7----------
Gb--------------------------------------------------------
Db--------------------------------------------------------
Ab--------------------------------------------------------
Eb--------------------------------------------------------

Intro A, B
Verse A, B
Fill 1
Verse A, B
Fill 2
Pre-Chorus A, B
Chorus
Verse A, B
Pre-Chorus A, B
Chorus
Intro A, B
Chorus
Chorus, Solo 1
Solo 2A, 2B================================================================


Author/Artist: Gob  
Title: For the Moment  
Album: The World According To Gob  
Transcribed by: Jonathan Karavos  
Email: the1andonly_bigbambino@hotmail.com  
 
Intro: Play this a few times  
 
-------------9--9--9--9-------------------------------------------------------  
-9--9--9--9-14-14-13-13--9--9--9--9--9--9--9--9-------------------------------  
13-13-13-13-------------13-13-13-13-------------------------------------------  
------------------------------------13-13-13-13-------------------------------  
------------------------------------------------------------------------------  
------------------------------------------------------------------------------  
                                                                                
Verse:  
 
-----------------------------------------------------------------------------  
-----------------------------------------------------------------------------  
66----------8888888888888888-------------------------------------------------  x2  
66-66666666-8888888888888888-8-33333333-xxxx---------------------------------  
44-66666666-6666666666666666-8-33333333-xxxx---------------------------------  
---44444444------------------6-11111111-xxxx---------------------------------  
                                                                                
 
-----------------------------------------------------------------------------  
-----------------------------------------------------------------------------  
88888888-1010101010101010---------------------------------------------------- x2  
88888888-1010101010101010----------------------------------------------------  
66666666--8-8-8-8-8-8-8-8----------------------------------------------------  
-----------------------------------------------------------------------------  
But I cling. . . . .                                               
 
 
Chorus:  
 
-----------------------------------------------------------------------------  
-----------------------------------------------------------------------------  
66-6-6-88888888----------88888888-10-8--6------------------------------------  
66-6-6-88888888-33333333-88888888-10-8--6------------------------------------  
44-4-4-66666666-33333333-66666666--8-6--4------------------------------------  
----------------11111111-----------------------------------------------------
Comments