Gob - Centipede Chords & Tabs

 

Centipede Chords & Tabs

Gob Chords & Tabs

Version: 2 Type: Tab 0 ratings
1 star 2 stars 3 stars 4 stars 5 stars
comments

Centipede Tab

Song: Centipede 
Band: Gob
Tabbed By: Lyle (gob_nofx_dude@hotmail.com)

Intro:
e|--------------------------------------------------------------------|
B|--------------------------------------------------------------------|
G|--------------------------------------8-----------------------------|
D|-5-3-5-3-5-3-5-3-5-3-5-3-5-3-5-3-5-3--8-----------------------------|
A|-5-3-5-3-5-3-5-3-5-3-5-3-5-3-5-3-5-3--6-----------------------------|
E|-3-1-3-1-3-1-3-1-3-1-3-1-3-1-3-1-3-1--------------------------------|

Verse:
e|--------------------------------------------------------------------|
B|--------------------------------------------------------------------|
G|-------5--------5---------------------------------------------------|
D|-5---2-5--5---2-5---------------------------------------------------|
A|-5-2-0-3--5-2-0-3---------------------------------------------------|
E|-3-0------3-0-------------------------------------------------------|

Prechorus:
e|--------------------------------------------------------------------|
B|--------------------------------------------------------------------|
G|---4-----4----------------------------------------------------------|
D|-5-4-5-5-4----------------------------------------------------------|
A|-5-2-5-5-2----------------------------------------------------------|
E|-3---3-3------------------------------------------------------------|
[ Tab from: http://www.guitartabs.cc/tabs/g/gob/centipede_tab_ver_2.html ]
Chorus:
e|--------------------------------------------------------------------|
B|--------------------------------------------------------------------|
G|---5------5-----5---------------------------------------------------|
D|-7-5--5-7-5-5-7-5-5-------------------------------------------------|
A|-7-3--5-7-3-5-7-3-5-------------------------------------------------|
E|-5----3-5---3-5---3-------------------------------------------------|

Break:
e|--------------------------------------------------------------------|
B|--------------------------------------------------------------------|
G|--------------------------------------8-----------------------------|
D|-5-3-5-3-5-3-5-3-5-3-5-3-5-3-5-3-5-3--8-----------------------------|
A|-5-3-5-3-5-3-5-3-5-3-5-3-5-3-5-3-5-3--6-----------------------------|
E|-3-1-3-1-3-1-3-1-3-1-3-1-3-1-3-1-3-1--------------------------------|

Verse 2:
e|--------------------------------------------------------------------|
B|--------------------------------------------------------------------|
G|-------5-------5----------------------------------------------------|
D|-5---2-5-5---2-5----------------------------------------------------|
A|-5-2-0-3-5-2-0-3----------------------------------------------------|
E|-3-0-----3-0--------------------------------------------------------|

Prechorus:
e|--------------------------------------------------------------------|
B|--------------------------------------------------------------------|
G|---4-----4----------------------------------------------------------|
D|-5-4-5-5-4----------------------------------------------------------|
A|-5-2-5-5-2----------------------------------------------------------|
E|-3---3-3------------------------------------------------------------|

Chorus:
e|--------------------------------------------------------------------|
B|--------------------------------------------------------------------|
G|---5------5-----5-----5-----5---------------------------------------|
D|-7-5--5-7-5-5-7-5-5-7-5-5-7-5---------------------------------------|
A|-7-3--5-7-3-5-7-3-5-7-3-5-7-3---------------------------------------|
E|-5----3-5---3-5---3-5---3-5-----------------------------------------|

song ends on G.
Comments