Goat - Big Up Shit Chords & Tabs

 

Big Up Shit Chords & Tabs

Goat Chords & Tabs

Version: 2 Type: Tab 0 ratings
1 star 2 stars 3 stars 4 stars 5 stars
comments

Big Up Shit Tab

#-----------------------------------------------------------------------------#
#-- File created with Instab - http://www.pconline.com/~smcarey/instab.html --#
#-----------------------------------------------------------------------------#

Author/Artist: Flyin G Man
Title: big up shit
Transcribed by: George Melvin
Email: pygmy01@hotmail.com

drop d tuning

---------------------------------------|--------------------------------------|
---------------------------------------|--------------------------------------|
---------------------------------------|--------------------------------------|
-0---0--0--3--0----0---0--0-3-0-1---rpt---------------------------------------|
-0---0--0--3--0----0---0--0-3-0-1------|--------------------------------------|
-0---0--0--3--0----0---0--0-3-0-1------|--------------------------------------|
  intro            certain rythm

--------------------------------------|----------------------------------------|
--------------------------------------|----------------------------------------|
--------------------------------------|----------------------------------------|
-0---0--0--3--0----0---0--0-3-0-1-----|-2--2-2-2-2-2-2-0-1---------------------|
-0---0--0--3--0----0---0--0-3-0-1--rpt|-2--2-2-2-2-2-2-0-1--rpt----------------|
-0---0--0--3--0----0---0--0-3-0-1-----|-2--2-2-2-2-2-2-0-1---------------------|
 verse (p.m.--------------------)       p.m.-----------------------------------|

-----------------------------------------|------------------------------------|
-----------------------------------------|------------------------------------|
-----------------------------------------|------------------------------------|
-0-0-5-6-6-6-6-6-5-3--0-0-5-6-6-6-6-6-5-3|5-5-5-5-5-5-5-5/8-8-8-8-8-8-8-8\----|
-0-0-5-6-6-6-6-6-5-3--0-0-5-6-6-6-6-6-5-3|5-5-5-5-5-5-5-5/8-8-8-8-8-8-8-8\----|
-0-0-5-6-6-6-6-6-5-3--0-0-5-6-6-6-6-6-5-3|5-5-5-5-5-5-5-5/8-8-8-8-8-8-8-8\----|
 break                                    chorus
[ Tab from: http://www.guitartabs.cc/tabs/g/goat/big_up_shit_tab_ver_2.html ]
------------------------------------------------------------------------------|
------------------------------------------------------------------------------|
------------------------------------------------------------------------------|
-5-5-5-5-5-5-5-5/8-8-8-8-8-8-8-8/12-12-12-12-12-12-12-12\8-8-8-8-8-8-8-8/-----|
-5-5-5-5-5-5-5-5/8-8-8-8-8-8-8-8/12-12-12-12-12-12-12-12\8-8-8-8-8-8-8-8/-----|
-5-5-5-5-5-5-5-5/8-8-8-8-8-8-8-8/12-12-12-12-12-12-12-12\8-8-8-8-8-8-8-8/-----|


--------------------------|---------------------------------------------|-----|
--------------------------|---------------------------------------------|-----|
--------------------------|-12-12-12-12-12-12-12-12-9-9-9-9-9-9-9-9-----|-----|
-12-12-12-12-12-12-12-12--|-12-12-12-12-12-12-12-12-9-9-9-9-9-9-9-9-rpt-|-----|
-12-12-12-12-12-12-12-12--|-10-10-10-10-10-10-10-10-7-7-7-7-7-7-7-7-----|-----|
-12-12-12-12-12-12-12-12--|---------------------------------------------|-----|
                           solo-rhythm part

----------------------------------------------10-9-8------------------/15-14--|
-15----------------------------------13-12-10--------8-10----------12---------|
-14b16-12h14p12\11----------11h12p11----------------------10-10/12------------|
-------------------14-12-12---------------------------------------------------|
------------------------------------------------------------------------------|
------------------------------------------------------------------------------|
  solo-

----15--------------------------|---------------------------------------------|
-12---15-15b17-12---------------|---------------------------------------------|
------------------12h14p12\11-12|-------------------5-5-5-5-3-3-3-3-0---------|
--------------------------------|-0--0-0-3-0--0-0-0-3-3-3-3-1-1-1-1-0---------|
--------------------------------|-0--0-0-3-0--0-0-0-3-3-3-3-1-1-1-1-0-rpt-----|
--------------------------------|-0--0-0-3-0--0-0-0-3-3-3-3-1-1-1-1-0---------|
                                  then chorus,verse and above bit to finish
Comments