Goanna - Razors Edge Chords & Tabs

 

Razors Edge Chords & Tabs

Goanna Chords & Tabs

Version: 1 Type: Tab 0 ratings
1 star 2 stars 3 stars 4 stars 5 stars
comments

Razors Edge Tab

   
This is a pretty close approximation of the intro to "Razor's Edge", although I'm sure
there are some mistakes. The last few beats are purely a guess since they are almost
inaudible on the recording.

Let all strings ring. This is especially important on the slide at the start of the
song. Both the B and E strings must ring for this to sound right.

Timings are approximate.


    D     A               Em7
E |-2h3-------------0------------------3-|
B |-2-----------0---------3----------/5--|
G |-3---------2--------------------------|
D |-0-------2----------------------------|
A |-0-----0-------0---0---2--------------|
D |-0------------------------------------|
[ Tab from: http://www.guitartabs.cc/tabs/g/goanna/razors_edge_tab.html ]
    D               A               Em7
E |-3p2-------0-------------------------------------------------------|
B |-3---3-----------------0---------3-------------------------3-------|
G |-------2-----2p0---2-------2-----------0---------------0-----------|
D |---------------------2---2---0-----------------0-------------------|
A |-----------------0---------------2---2---2---2---2---2---2---0-----|
D |-0-------0-------------------------------------------------------0-|

    D              A               Em7
E |-----5----------0-----0----------------------0-0------|
B |-7-------7--------2-------2-----3---------------------|
G |-----------0--------2-------0---0----------0-0-0-0----|
D |---0-----------------------------------2h4------------|
A |-------0--------0-------0-------2---------------------|
D |----------------------------------------------------0-|

    D               A                 Em7
E |-------10--------10h12------9------7---------7-----9-----10----12-|
B |---10------10---------10------10-------8-------8-----8-------8----|
G |-------------0-----------------------9---7-------9-----7----------|
D |-----0------------------0-----------------------------------------|
A |---------0--------------------------------------------------------|
D |-0-------------0-0-----------------0-------0-------0-------0------|

Comments