Gluecifer - Go Away Man Chords & Tabs

 

Go Away Man Chords & Tabs

Gluecifer Chords & Tabs

Version: 1 Type: Bass Tab

Go Away Man Bass Tab

Guitar intro


Verses:


G|------------------------------------------------------------------------------|
D|-2-4---------------------2-4-------------------4-2----------------2-2---------|
A|-----4-4-4-4-4-4-4-4---4-----4-4-4-4-4-4-4---4-----4-4-------0-0-------4-4-4--|
E|--------------------------------------------------------2-2-------------------|

  I'm down and out now  sittin in a stupid chair     seems that i've been
swappin..


Chorus:

[ Tab from: http://www.guitartabs.cc/tabs/g/gluecifer/go_away_man_btab.html ]
G|------------------------------------------------------------------------------|
D|-2-2------------------------2-2-----------------------------------------------|
A|-----2-2--4-4-4-4-4-4-4-4-------2-2-4-4-2-2-0-0-0-0-2-2-2-2------played twice!|
E|------------------------------------------------------------------------------|


little bridge:

I play this:

G|--------------------------------------|
D|---4----2----4----6-------------------|
A|--------------------------------------|
E|--------------------------------------|
   I wanna eat my cheese...