Gluecifer - Easy Living Chords & Tabs

 

Easy Living Chords & Tabs

Gluecifer Chords & Tabs

Version: 1 Type: Tab 0 ratings
1 star 2 stars 3 stars 4 stars 5 stars
comments

Easy Living Tab

   
visit www.gluecifer.com if you donīt have a clue who gluecifer are
-------------------------------------------------------------------------------
			    Easy Living - Gluecifer
-------------------------------------------------------------------------------
Tabbed by: schleichi

Tuning: standard

Bass intro                     2x
G|--------------------------------|-------------------------|-----------------------|
D|--------------------------------|-------------------------|-----------------------|
A|--------------------------------|-------------------------|-----------------------|
E|--6-6--6-6-6--6-6-6---6-4-4-9-9-|-4-4--4-4-4--4-4-4--9-9--|-6-6-6-6-6-6-6-6-9-9---|

    I'm done with the easy living| I'm done with the slack |I'm done with the
    I'm done with the easy living| youre giving me         | easy living

 guitar (verse)             2x
e|---------------------------|-------------------------------------------------|
B|---------------------------|-------------------------------------------------|
G|------------------------6--|---------------------6---------------------------|
D|-8-8--8-8-8--8--8--6-6--6--|---6---6--6--6-6--6--6----8--8-8-8-8-8--4-4--6---|
A|-8-8--8-8-8--8--8--6-6--4--|---6---6--6--6-6--6--4----8--8-8-8-8-8--4-4--6---|
E|-6-6--6-6-6--6--6--4-4-----|---4---4--4--4-4--4-------6--6-6-6-6-6--6-6--4---|
[ Tab from: http://www.guitartabs.cc/tabs/g/gluecifer/easy_living_tab.html ]
chorus
e|-----4---7------------------------------------------------------------------------|
B|-----6---9----7-------------------------------------------------------------------|
G|-----6---9----8----11-------------------------------------------------------------|
D|-----6---9----9----11-------------------------------------------------------------|
A|-----4---7----9-----9-------------------------------------------------------------|
E|--------------7-------------------------------------------------------------------|
      C#   E    B    F#


C#                 E                    B                     F#
I'm sitting in a house so pretty got a life so shitty and i want no pity
Come on with the nitty gritty yeah come on and hit me coz i'm feeling shitty

                                        
                                       2nd guit 
I'm done with the words i'm saying     e|-----------------------|
I'm done with the words i'm saying     B|--11-11-11.....-11-11--|
I'm done with the game i'm playing     G|-----------------------|
I'm done with the words i'm saying     D|---8--8--8-------8--8--|

I'm done with the road i'm walking
I'm done with the road i'm walking
I'm done with the goddamn talking
I'm done with the road i'm walking

repeat chorus

BRIDGE...or sth like this

e|--10-10-10-10-10-10----10-~~~~~~---------------------------13------12-10--|
B|--11-11-11-11-11-11----11-~~~~~~-----------------------//15----/14--------|
G|--------------------------------------------------------------------------|
D|--------------------------------------------------------------------------|
A|--------------------------------------------------------------------------|
"SHITTYYYYYYYY.....           I m done with the easy livin

repeat 1st verse

repeat chorus



edit- i made some corrections, now this ting should be really ok.
rate it.


| /  slide up
| \  slide down
| h  hammer-on
| p  pull-off
| ~  vibrato
| +  harmonic
| x  Mute note
===============================================================================
Comments