Gluecifer - Brutus Chords & Tabs

 

Brutus Chords & Tabs

Gluecifer Chords & Tabs

Version: 1 Type: Bass Tab

Brutus Bass Tab

   
   G                                      Bb
e|------------------------------------------------------------------------------|
B|------------------------------------------------------------------------------|
G|------------------------------------------------------------------------------|
D|-5-5--5-5-5---5-5--5-5-5---5-5--5-5-5---8-8-8-8-8-8--------played twice-------|
A|-5-5--5-5-5---5-5--5-5-5---5-5--5-5-5---8-8-8-8-8-8--------Raldo only---------|
E|-3-3--3-3-3---3-3--3-3-3---3-3--3-3-3---6-6-6-6-6-6---------------------------|

   G                                      Bb G  D#          F
e|------------------------------------------------------------------------------|
B|------------------------------------------------------------------------------|
G|----------------------------------------------8-8--8-8-8--10-10-10-10-10-10---|
D|-5-5--5-5-5---5-5--5-5-5---5-5--5-5-5---8--5--8-8--8-8-8--10-10-10-10-10-10---|
A|-5-5--5-5-5---5-5--5-5-5---5-5--5-5-5---8--5--6-6--6-6-6--8--8--8--8--8--8----|
E|-3-3--3-3-3---3-3--3-3-3---3-3--3-3-3---6--3----------------------------------|

                                                ^--- this is played longer than 
shown here


[ Tab from: http://www.guitartabs.cc/tabs/g/gluecifer/brutus_btab.html ]
Chorus:

   G                         Bb                        C
e|------------------------------------------------------------------------------|
B|------------------------------------------------------------------------------|
G|------------------------------------------------------------------------------|
D|-5-5--5-5-5---5-5--5-5-5---8-8--8-8-8---8-8--8-8-8---10-10--10-10-10----------|
A|-5-5--5-5-5---5-5--5-5-5---8-8--8-8-8---8-8--8-8-8---10-10--10-10-10----------|
E|-3-3--3-3-3---3-3--3-3-3---6-6--6-6-6---6-6--6-6-6---8--8---8--8--8-----------|
   bring 'em on  gotta bring 'em on you know i'am ready...

   C                 D#          F
e|------------------------------------------------------------------------------|
B|------------------------------------------------------------------------------|
G|-------------------8-8--8-8-8--10-10--10-10-10--------------------------------|
D|-10-10--10-10-10---8-8--8-8-8--10-10--10-10-10--------------------------------|
A|-10-10--10-10-10---6-6--6-6-6--8--8---8--8--8---------------------------------|
E|-8--8---8--8--8---------------------------------------------------------------|
                    ... cause this is what the brutus likes