Glue Gun - Skate The Hate Chords & Tabs

 

Skate The Hate Chords & Tabs

Glue Gun Chords & Tabs

Version: 2 Type: Bass Tab 0 ratings
1 star 2 stars 3 stars 4 stars 5 stars
comments

Skate The Hate Bass Tab

SKATE THE HATE 
by Glue Gun

INTRO: 
[ Tab from: http://www.guitartabs.cc/tabs/g/glue_gun/skate_the_hate_btab_ver_2.html ]
G:----------------------------------------------------- 
D:----------------------------------------------------- 
A:-------------------------------7-7-7-7-7-7-7-7-7-7--- 
E:-5-5-9-9-9-9-8-8-7-7-5-0-0--------------------------- 



FAST PART(PLAY THIS FAST) 

G:------------------ 
D:------------------ 
A:--9-9-8-8-7------- 
E:----------------7- 

 
Richard meyer: benm@oakweb.com
Comments