Glue Gun - Devil May Care Chords & Tabs

 

Devil May Care Chords & Tabs

Glue Gun Chords & Tabs

Version: 1 Type: Tab 0 ratings
1 star 2 stars 3 stars 4 stars 5 stars
comments

Devil May Care Tab

group: Glue Gun
song: Devil May Care
Submitted by Tim

intro :(not exact amount)
|------------------------------------------------------------------------------|
|------------------------------------------------------------------------------|
|------------------------------------------------------------------------------|
|------------------------------------------------------------------------------|
|------------------------------------------------------------------------------|
|222222222222222222222222222222222222222|
 |............palm mute................|

Riff 1:
|-------------------------------------------|
|-------------------------------------------|
|-------------------------------------------|
|--11-11-12-12-9--9-11----------|
|-- 9-  9- 10-10-7--7- 9-----------|
|-------------------------------------------|
[ Tab from: http://www.guitartabs.cc/tabs/g/glue_gun/devil_may_care_tab.html ]
Riff 2:
|---------------------------------------------|
|---------------------------------------------|
|---------------------------------------------|
|--11-11-12-12-9--9-11------------|
|-- 9-  9- 10-10-7--7- 9-------------|
|---------------------------------0-0-0-0-|


Riff 3:
|-----------------------------------------------------------------|
|-----------------------------------------------------------------|
|-----------------------------------------------------------------|
|-----------------------------------------------------------------|
|-----------5---5---------6---6--------7---7--------6---6-|
|--2-3-3--------2-3-3-------2-3-3-------2-3-3---------|

Outro:
|--------------------------------------------------------|
|--------------------------------------------------------|
|--------------------------------------------------------|
|--11-11--12-12--11-11-12-12-9--9-11-|
|-- 9-  9-- 10-10-- 9- 9-  10-10-7--7- 9--|
|--------------------------------------------------------|

INTRO (Guitar 1)
INTRO (Guitar 1&2)
RIFF 1 (Guitar 1) INTRO (Guitar 2)
RIFF 2 (Guitar 1&2)
RIFF 3 (Guitar 1&2)
RIFF 2 (Guitar 1&2)
RIFF 3 (Guitar 1&2)
OUTRO (Guitar 1&2)

Not sure if this is the hole song because I 
learn't it off Crusty Demons of Dirt 2, and 
they cut stuff out of songs sometimes.
Comments