Gloria Gaynor - I Will Survive Chords & Tabs

 

I Will Survive Chords & Tabs

Gloria Gaynor Chords & Tabs

Version: 1 Type: Tab 0 ratings
1 star 2 stars 3 stars 4 stars 5 stars
comments

I Will Survive Tab

   
-----------------------------------------------------------------------------
		I Will Survive - Gloria Gaynor/Cake
-----------------------------------------------------------------------------
Tabbed by:Spence
Email:delajeep@hotmail.com

Tuning:standard

Ok, here we go with another of my opinionated tabs.
Once again, I don't care how the original was done,
I have created my own way.

This is played freely, with spunk.  Kinda get that
funkiness down, you know, get you're upper body
moving with the beat, kinda jerk like a chicken.
Get that bottom lip stuck out and belt this one
out!
This is the whole song....if you get this progression
down, you're set.  I've found the best way to perform
this one is with attitude.  Throw as many "fucks" and
"shit" into the lyrics, (without overkilling, of course)
Chicks love this song!@
e|----5-5-5-5---5-5-5-------5-5-5-5---5-5-----------------------------------|
B|----8-8-5-5---5-5-5-------6-6-6-6---6-6-6---------------------------------|
G|----5-5-5-5---5-5-5---(0)-7-7-7-7---7-7-7-------4-4-4-4-4-4-4-4-4-4-------|
D|(0)-5-5-5-5-5-------5-(0)-7-7-----7-------7-(0)-x-x-x-x-x-x-x-x-x-x-------|
A|(0)-7-7-----7-------7-(0)-5-5-------------5-(0)-5-5-5-5-5-5-5-5-5-5-------|
E|(0)-5-5----------------x-x----------------x-(0)-3-3-3-3-3-3-3-3-3-3-------|
[ Tab from: http://www.guitartabs.cc/tabs/g/gloria_gaynor/i_will_survive_tab.html ]
e|--------------------------------------------------0-2---------------------|
B|----------------------------------------------0-0-0-0---------------------|
G|(0)-5-5-5--5-5-5-4-4-4-4--2-2-2-2-2-2-2-2-----2-2-2-2--2-2-2-2-2-2-1-1-1--|
D|(0)-5-5-5--5-5-5-5-5-5-5--x-x-x-x-x-x-x-x-(0)-1-1-1-1--2-2-2-2-2-2-2-2-2--|
A|(0)-3-3-3--3-3-0-2-2-2-0--3-3-3-3-3-3-3-3-(0)-2-2-2-2--2-2-2-2-2-2-2-2-2--|
E|--------------------------1-1-1-1-1-1-1-1-(0)-----------------------------|

e|---------|
B|---------|
G|-1-1-1-1-|0
D|-2-2-2-2-|0 Repeat throughout the song
A|-2-2-2-2-|
E|---------|
Now, I want y'all to remember, just because I tabbed it this way
does not mean you have to play it this way.  I learned the song
on piano when I was young and this is how I transferred it to
the guitar.
Also, remember that I love fluid songs.  I love to beat the shit
out of my Ovation, or whatever other acoustic I get my hands on.
Noone is exactly like the other person, so styles will differ.
Use your style to your advantage, don't criticize it.  The more
you criticize yourself, the more you hold yourself down.
Peace!!!!
Spence
| /  slide up
| \  slide down
| h  hammer-on
| p  pull-off
| ~  vibrato
| +  harmonic
| x  Mute note
=============================================================================
Comments