Glister - Chasing The Moon Chords & Tabs

 

Chasing The Moon Chords & Tabs

Glister Chords & Tabs

Version: 1 Type: Tab 0 ratings
1 star 2 stars 3 stars 4 stars 5 stars
comments

Chasing The Moon Tab

   
This is the best song from Glister's new album... 'Be There Soon'

INTRO / VERSE:

|---0-------------|---0-------------|
|-----4-----------|-----4-----------|
|-4-----4---------|-4-----4---------|
|-----------------|-----------------|
|---------4-5-4-5-|---------4-5-----|
|-----------------|-----------------|

Bm7       A      G5
EADGBE  EADGBE  EADGBE
575555  007600  355XXX

Then the tail riff is:
[ Tab from: http://www.guitartabs.cc/tabs/g/glister/chasing_the_moon_tab.html ]
|-----------|
|-----------|
|-----------|
|-----------|
|-5-4-------|
|-----5-/-7-|


CHORUS:

 G       D
EADGBE  E A  D  G  B  E
X5578X  X 10 10 12 13 X


G D Em D D/Db D


Middle 8:

|---------------------|
|-7-8-8-7-7-7-x-x-x-x-|
|-7-9-9-7-7-7-x-x-x-x-|
|-7-9-9-7-7-7-x-x-x-x-|
|-7-----7-7-7-x-x-x-x-|
|---------------------|
Comments