Glen Miller - In The Mood Chords & Tabs

 

In The Mood Chords & Tabs

Glen Miller Chords & Tabs

Version: 1 Type: Bass Tab 0 ratings
1 star 2 stars 3 stars 4 stars 5 stars
comments

In The Mood Bass Tab

      ####--------Glenn-Miller---In-the-mood-----------##---|
     ####--------------By-Jørgen Øverjordet-----------##----|


|-----------------------------------------------------------------------|
|--------------7-7-7-7-7\6/5-----------------2--------------------------|
|------4---7------------------7--7-6-5-4-3-2----0----------------2------|
|--5--------------------------------------------------------------------|


|--2-----2-----2---------2------2------2-----2-----2--------------------|
|-----4--0-------4-------0--------4----0--------4-----------------------|
|--------2---------------2-------------2--------------------------------|
|------------------------------------------------------0--2--4----------|

|------------------------------------------------------------|
|-------------------------------------2----------------------|
|--0---4---------4---0---4-------4---------------------------|
|------------0-------------0---------------------------------|
[ Tab from: http://www.guitartabs.cc/tabs/g/glen_miller/in_the_mood_btab.html ]
|------------------------------------------------------------|
|-----7-------7-------7-------7------------------------------|
|-5---------------5------------------------------------------|
|---------5--------------------------------------------------|

|------------------------------------------------------------|
|------------------------------------------------------------|
|--0---4---------4---0---4-------4---------------------------|
|------------0-------------0---------------------------------|

|------------------------------------------------------------|
|------------------0-----------------------------------------|
|------0-----------------------------------------------------|
|--0-------7---0-------7---0---------------------------------|

|------------------------------------------------------------|
|------------------------------------------------------------|
|-0------4-----5-----6-----8-7---0---------------------------|
|------------------------------------------------------------|

That was the 1. part!
The rest come's later...
Comments