Gleek - Low Yet High Chords & Tabs

 

Low Yet High Chords & Tabs

Gleek Chords & Tabs

Version: 1 Type: Tab 0 ratings
1 star 2 stars 3 stars 4 stars 5 stars
comments

Low Yet High Tab

   
Low yet High

By:  Gleek
     
Co-produced by Metallica

Album: Nap

Key:
Pull off= p
Hammer= h
Slide= /




Intro and chorus 2x: echoing distortion
E-------3p0-------------3p0-------------3p0-------------3p0----------
B—0h3p0h3p0-------0h3p0h3p0-------0h3p0h3p0-------0h3p0h3p0----------
G--------------------------------------------------------------------
D--------------------------------------------------------------------
A--------------------------------------------------------------------
E--------------------------------------------------------------------



E-----3-----5----2-----3-----3-----5-----2-----3-----5-----2-3—-3—-33-
B---4-----6----2-----2-----4-----6-----2-----4-----6-----2---3—-3—-33-
G-5-----5----3-----1-----5-----5-----3-----5-----5-----3--------------
D---------------------------------------------------------------------
A---------------------------------------------------------------------
E---------------------------------------------------------------------


First 2 verses:
E-3--3--33--5--5--55--------------------------------------
B-3—-3--33--5--5--55--------------------------------------
G---------------------3--3--33--2--1-1--------------------
D---------------------3--3--33--2--1-1--------------------
A---------------------------------------------------------
E---------------------------------------------------------

[ Tab from: http://www.guitartabs.cc/tabs/g/gleek/low_yet_high_tab.html ]
Bridge 2x:
E--------------------------
B--------------------------
G-------------9--9--7--7---
D-2--2--5--5--7--7--6--6---
A-4--4--7--7---------------
E--------------------------


Second chorus 2x:
E-------------------------------------------------------------
B-------------------------------------------------------------
G-------------------------------------------------------------
D-------------------------------------------------------------
A---------0---------------0---------------0---------------0---
E-0h3p0h3p0-------0h3p0h3p0-------0h3p0h3p0-------0h3p0h3p0---


Second 2 verses:
E----------------------------------
B----------------------------------
G---------------3—-3h4--1—-1h2/5---
D---------------3—-3h4-—1-—1h2/5---
A-3—-3h4---5—-5h6------------------
E-3—-3h4---5—-5h6------------------


Ending:
E------20p17------20p17------20p17------20p17-------20p17----17-20---
B------------18---------18---------18---------18----------18---------
G--------------------------------------------------------------------
D--------------------------------------------------------------------
A--------------------------------------------------------------------
E--0-----------------------------------------------------------------


And there it is shouldn’t be too hard.  If you have any questions or comments or places you would like us to play e-mail me at flyn’johnny12@attbi.com.  A special thanks to Metallica, we wouldn’t be were we are now if it wasn’t for you guys.  By the way Saint Anger is awesome, keep rockin’ hard.  We also thank all of our supports that have helped us along the way. -Gleek


Comments