Glasvegas - Its My Own Cheating Heart That Makes Me Cry Chords & Tabs

 

Glasvegas Chords & Tabs

Version: 1 Type: Tab 0 ratings
1 star 2 stars 3 stars 4 stars 5 stars
comments

Its My Own Cheating Heart That Makes Me Cry Tab

   
Tabbed by Daniel Bamsey (drbams@yahoo.co.uk) 2008

It's My Own Cheating Heart That Makes Me Cry - Glasvegas
(Allan)

VERSION 1

(Standard Tuning: E A D G B E)

Chords used:

   C          Am          Dm           G  Gsus4   F

--0-----------0-----------1-----------3----0-----1---
--1-----------1-----------3-----------3----1-----1---
--0-----------2-----------2-----------0----0-----2---
--2-----------2-----------0-----------0----0-----3---
--3-----------0-----------------------2----2-----3---
--------------------------------------3----3-----1---


VERSE:

 C         Am         Dm         G       Gsus4 F G 

Lots of shimmering strumming from James on Rhythm

PLENTY of reverb from Rab who messes around roughly with the following chords high up the neck.

  C               Am              Dm              G        Gsus4 F  G

-12------12-12--12------12-12--13------13-12--10-------12----8--10-
-13------13-12--13------13-12--15------15-15--12-------13----10-12-
-12------12-12--14------14-12--14------14-14--12-------12----10-12-
-------------------------------------------------------------------
-------------------------------------------------------------------
-------------------------------------------------------------------


CHORUS:

Same chords from James but minus the shimmer..

Hit the overdrive and think of Slash if you're Rab.

  C                                          

---------------------------------------
---------------------------------------
----------12---------------------------
----14----------14------15----14----12-
/15----15----15------15----15----15----
---------------------------------------
[ Tab from: http://www.guitartabs.cc/tabs/g/glasvegas/its_my_own_cheating_heart_that_makes_me_cry_tab.html ]
---------------------------------------
---------------------------------------
----------12---------------------------
----14----------14------15----14----12-
-15----15----15------15----15----15----
---------------------------------------

  Am

---------------------------------------
---------------------------------------
----------12---------------------------
----14----------14------15----14----12-
/15----15----15------15----15----15----
---------------------------------------

---------------------------------------
---------------------------------------
----------12---------------------------
----14----------14------15----14----12-
-15----15----15------15----15----15----
---------------------------------------

 Dm

---------------------------------------
---------------------------------------
----------14------------------14-------
----15----------15------15----------15-
/17----17----17------17----17----17----
---------------------------------------

---------------------------------------
---------------------------------------
----------14------------------14-------
----15----------15------14---------14--
-17----17----17------15----15----15----
---------------------------------------

 G
---------------------------------------
---------------------------------------
----------16------------------16-------
----17----------17------17---------17--
/19----19----19------19----19----19----
---------------------------------------

 Gsus4                F           G
-----------------------------------------
---------17------------------------------
----17---------17------14----------16----
/19----19---19------15----15---/17----17-
-----------------------------------------
-----------------------------------------


"Liar, Liar, Liar, Liar, Liar, Pants on fire.."
Comments