Glassjaw - Two Tabs Of Mescaline Chords & Tabs

 

Two Tabs Of Mescaline Chords & Tabs

Glassjaw Chords & Tabs

Version: 1 Type: Tab 0 ratings
1 star 2 stars 3 stars 4 stars 5 stars
comments

Two Tabs Of Mescaline Tab

   
Artist: Glassjaw
Song: Two Tabs Of Mescaline
CD: Worship and Tribute

Tabbed by: Phil Scott
email: phil3903@hotmail.com

Intro/Verse (Guitar 1)
e--------------------|-------------|
b----------13-10-----|-------------|
g-12-10---------12h14|-15-14-------|
d-------12-----------|-------15----|
a--------------------|----------15-|
D--------------------|-------------|


Intro (Guitar 2)

e------------------------|-------|
b----------10------------|-------|
g------------------------|-------|
d-12-10-------------10h12|-15----|
a-------12----10h12------|----17-|
D------------------------|-------|


Chorus (Guitar 1)
e------------------------------------------------------------|
b------------------------------------------------------------|
g-------10-10-10------10-10-10------10-10-10--------10-10-10-|
d-0-0-0---------0-0-0---------0-0-0-----------0-0-0----------|
a-0-0-0-8--8--8-0-0-0-8--8--8-0-0-0-8--8--8---0-0-0-8--8--8--|
D-0-0-0---------0-0-0---------0-0-0-----------0-0-0----------|


e-----------------------|
b-----------------------|
g-3-3---3-3---3-3---3-3-|
d-3-3---3-3---3-3---3-3-|
a-1-1---1-1---1-1---1-1-|
D-----------------------|
[ Tab from: http://www.guitartabs.cc/tabs/g/glassjaw/two_tabs_of_mescaline_tab.html ]
Chorus (guitar 2)
e-----------------------------------------------------------|
b-----------------------------------------------------------|
g-10-10-10-10-10-10-10-10-10-14--14--17--17--21--21--17--17-|
d-----------------------------------------------------------|
a-8--8--8--8--8--8--8--8--8--12--12--15--15--19--19--15--15-|
D-----------------------------------------------------------|


e----------------------------------------------------------|
b-----------13---------------------------------------------|
g-------14----------------14-12----------------------------|
d-12-15---------12--12h15-------12----15-14-15h17----17-15-|
a----------------------------------15-------------15-------|
D----------------------------------------------------------|

  K!     Q!    E!       D!
e-------------------------|
b-------------------------|
g-------------------------|
d-15-----17----17p15------|
a--------------------17---|
D-------------------------|

Feeding Time, and Old Friends of mine.
e------------------------|
b------------------------|
g-11-11-11-11-11-11------|
d-11-11-11-11-11-11--5-5-|
a-9--9--9--9--9--9---5-5-|
D--------------------5-5-|

Sailor scent!
Bridge

(Guitar 1)
e--------------------|--------------|
b----------13-10-----|--------------|
g-12-10---------12h14|-11-11--11-11-|
d-------12-----------|-11-11--11-11-|
a--------------------|-9--9---9--9--|
D--------------------|--------------|


(Guitar 2)

e------------------------|----------|
b----------10------------|----------|
g------------------------|----------|
d-12-10-------------10h12|-4-4--4-4-|
a-------12----10h12------|-4-4--4-4-|
D------------------------|-4-4--4-4-|

Outro (hold an A chord then do the following)
e--------------------------|
b--------------------------|
g-3---2---2------3---2---2-|
d-3---2---2------3---2---2-|
a-1---0---0------1---0---0-|
D--------------------------|
Comments