Glassjaw - Siberian Kiss Chords & Tabs

 

Siberian Kiss Chords & Tabs

Glassjaw Chords & Tabs

Version: 3 Type: Tab 0 ratings
1 star 2 stars 3 stars 4 stars 5 stars
comments

Siberian Kiss Tab

GlassJAw - Siberian Kiss
From the album 'Everything you ever wanted to know about silence'
Tabbed by Stinkfisting 

x// or x\\ = pickscrape up (/) or down (\)
PM - Palm mute
NH - Natural harmonic

Intro
E---------------------------|
B---------------------------|
G---------------------------|
D--3--2--0--0--0-0--0--0--1-|
A--3--2--0--0--0-0--0--0--1-|
D--3--2--0--0--0-0--0--0--1-|
        |-------PM------| (keep the last note short)

Verse (give me back!...)
E-------------------------------------------------
B-------------------------------------------------
G-------------------------------------------------
D-------------------------------------------------
A--1-1-1-1-0-0-1-1-1-0-0-0-1-1-1-0-0-0-1-1-1-0-0-0
D--1-1-1-1-0-0-1-1-1-0-0-0-1-1-1-0-0-0-1-1-1-0-0-0

E----------------------------------------------------
B----------------------------------------------------
G----------------------------------------------------
D--4/5-----------------------------------------------
A--2/3-0-3-0-4\3-1-1-1-1-0-0-1-1-1-0-0-0-1-1-1-0-0-0-
D------0-3-0-4\3-1-1-1-1-0-0-1-1-1-0-0-0-1-1-1-0-0-0-
      PM  PM    |--PM---|

                   1st time          2nd time
E----------------|---------------|---------|
B----------------|---------------|-x---x---|
G----------------|---------------|-x---x---|
D----------------|---------------|-x-2-x-3-|
A--1-1-1-0-0-0-0-|-2-2-2-2-3-3-3-|-x-2-x-3-|
D--1-1-1-0-0-0-0-|-2-2-2-2-3-3-3-|---2---3-|

Interlude
E--7---7---8p7---7---7---8p7---7---7---7---8p7---7---------|
B----7---7-----7---7---7-----7---7---7---7-----7---x---x---|
G--------------------------------------------------x---x---|
D--------------------------------------------------x-3-x-2-|
A--------------------------------------------------x-3-x-2-|
D----------------------------------------------------3---2-|

Pre-chorus (a hiccup in paradise...) x2
Gtr 1
E--7---7---8p7---7---7---8p7---7---7---7---8p7---7---7---7--
B----7---7-----7---7---7-----7---7---7---7-----7---7---7--7-
G-----------------------------------------------------------
D-----------------------------------------------------------
A-----------------------------------------------------------
D-----------------------------------------------------------

1st time Gtr 2 (with delay)
E--7---(let ring)------------------7---(let ring)-----------
B-----------------------------------------------------------
G-----------------------------------------------------------
D-----------------------------------------------------------
A-----------------------------------------------------------
E-----------------------------------------------------------

2nd time Gtr 2 (with delay)
E-----------------------------------------------------------
B-----------------------------------------------------------
G-----------------------------------------------------------
D-----------------------------------------------------------
A-----------------------------------------------------------
D--x///////////--x////////////-x////////////-/x////////////-
[ Tab from: http://www.guitartabs.cc/tabs/g/glassjaw/siberian_kiss_tab_ver_3.html ]
then both times
Gtr's 1 & 2
E-----------------0---------------5-------|
B-X-----------------0---------------5-----|
G-X-7-------4---------4------0--------0---|
D-X-7-----2-----2----------4---4--------4-|
A-X-5---3-----3---------/5----------------|
D-----------------------------------------|

Chorus x2
Gtr's 1 & 2
(one phone lines and letterhead...)           1st time  2nd time
E-----0-------0--------0-----0------0-------|---------|---------|
B-----0-------0--------0-----0--------0-3---|---------|-x---x---|
G-----0-------0--------0-----0--------------|---------|-x---x---|
D--2----2--2----0---2----2-2---0----------0-|---------|-x-3-x-2-|
A--2----2--2----0---2----2-2---0-3--------0-|---------|-x-3-x-2-|
D--2----2--2----0---2----2-2---0----------0-|-x\\\\\\-|---3---2-|

Bridge (you always sell yourself....if i can't have you no one WILL!)
E--5h7-(let ring)------------------------------------------------|
B----------------------------------------------------------------|
G----------------------------------------------------------------|
D----------------------------------------------------------------|
A---------------------------------x\\\\\\\\\\\\\\\\\\\\\\\\\\\\\-|
D---------------------------------x\\\\\\\\\\\\\\\\\\\\\\\\\\\\\-|
					   (slowly swell in with volume knob)

Bridge x2
E----------------------------------------------------
B----------------------------------------------------
G----------------------------------------------------
D----------------------------------------------------
A--3p2-1--1--1--1--1--1--1--3p2--1--1--1--1--1--1--1-
D--3p2-1--1--1--1--1--1--1--3p2--1--1--1--1--1--1--1-

				     1st time
E--------------------------|--------------------------
B--------------------------|--------------------------
G--------------------------|--------------------------
D--------------------------|--------------------------
A--3p2-1--1--1--1--1--1--1-|-3p2--1--1--1--1--1--1--1-
D--3p2-1--1--1--1--1--1--1-|-3p2--1--1--1--1--1--1--1-

2nd time
E--------------------------|
B---------------x-----x----|
G---------------x-----x----|
D---------------x--3--x--2-|
A--3p2-1--1--1--x--3--x--2-|
D--3p2-1--1--1-----3-----2-|

last interlude x8
E--7---7---8p7---7---7---8p7---7---|
B----7---7-----7---7---7-----7---7-|
G----------------------------------|
D----------------------------------|
A----------------------------------|
D----------------------------------|

Last riff x4 - just before you play this do a small pickscrape down the strings
Gtr's 1 & 2
(i'll keep you jealously to myself...)
E-------------------------------|
B-------------------------------|
G-------------------------------|
D-------------------------------|
A--2-2--0-2-2--0-2-2--0-2-3-2-0-|
D--2-2--0-2-2--0-2-2--0-2-3-2-0-|
 |------------PM---------------|

then x3
E-------------------------------|
B-------------------------------|
G-------------------------------|
D-------------------------------|
A--2-2--0-2-2--0-2-2--0-2-3-2-0-|
D--2-2--0-2-2--0-2-2--0-2-3-2-0-|

then                      (a kiss in the shape of a bullet)
E------------------------------------|
B------------------------------------|
G------------------------------------|
D--------------------------(7)-Gtr 2-|
A--------------------------NH--------|
D--2-2--0-2-2--0-2-2--0-0--(7)-Gtr 1-|
                           NH
Comments