Glassjaw - Piano Chords & Tabs

 

Piano Chords & Tabs

Glassjaw Chords & Tabs

Version: 3 Type: Tab 0 ratings
1 star 2 stars 3 stars 4 stars 5 stars
comments

Piano Tab

   
	     SONG: Piano
	     BAND: Glasjaw
	    ALBUM: Everything You Ever Wanted To Know About Silence
   TRANSCRIBED BY: Unknown
	     DATE: Unknown

 
	TUNING: drop d (d,A,d,G,B,E)


     INTRO:

   --------12---------12--------12--------12--------------15--------15-------15---------15----
   ----13---------13---------13--------13----13------13---------13--------13---------13----13-
   -10--------10----------10-------10------------10----------10--------10--------10-----------
   -------------------------------------------------------------------------------------------
   -------------------------------------------------------------------------------------------
   -------------------------------------------------------------------------------------------

     the 2nd guitar player continues to play the intro
     when the 1st guitar player plays this riff:

     RIFF 1:

   ---------------------------------------------------------------------
   ---------------------------------------------------------------------
   ---------------------------------------------------------------------
   -0000-10-10-10-10-0000-10-10-10-10-1010101010101010101010101010101010
   -0000-10-10-10-10-0000-10-10-10-10-8-8-8-8-8-8-8-8-8-8-8-8-8-8-8-8-8-
   -0000-10-10-10-10-0000-10-10-10-10-8-8-8-8-8-8-8-8-8-8-8-8-8-8-8-8-8-

     the first guitar player plays riff 1 four times, except the
     third time the 10 and the 0 are inverted like this:

   -10-10-10-10-0000-10-10-10-10-0000-1010101010101010101010101010101010-
   -10-10-10-10-0000-10-10-10-10-0000-8-8-8-8-8-8-8-8-8-8-8-8-8-8-8-8-8-
   -10-10-10-10-0000-10-10-10-10-0000-8-8-8-8-8-8-8-8-8-8-8-8-8-8-8-8-8-

     RIFF 2: (lyrics begin)

     \"Three times alone this week i was suppose to be a rock star...\"

     guitar 1
[ Tab from: http://www.guitartabs.cc/tabs/g/glassjaw/piano_tab_ver_3.html ]
   ------------------------------------------------------------------
   ------------------------------------------------------------------
   ------------------------------------------------------------------
   -6666666600000000222222220000000066666666000000002222222200000000-
   -4444444400000000222222220000000044444444000000002222222200000000-
   -4444444400000000222222220000000044444444000000002222222200000000-

     guitar 2

   ------------------------------------------------------------------------------7---
   ----------------------------------------------------------------------------------
   -------------------------------------------------------98----------------9-89-----
   -66----------------------66------------------------------9------11-----9--------9-
   -44----------------------44-------------------------------11-------9--------------
   -44----------------------44-------------------------------------------------------

     RIFF 3:

     guitar 1

   ------------------------------------------------------------7------
   -------------------------------------------------------------------
   ------------------------------------------888899898----88899--9988-
   --------------------------------------9999---------9999------------
   -------------------------------------------------------------------
   -------------------------------------------------------------------

     guitar 2

   ----------------------------------------------------7-----7-----7----7-
   -----------------------------------------------------------------------
   ---11-98--11-98--11-98--11-98--------------------89----89---89----89---
   -----------------------------------------------------------------------
   -----------------------------------------------------------------------
   -----------------------------------------------------------------------

     RIFF 4:

   --------------------------------------------------------
   --------------------------------------------------------
   --------------------------------------------------------
   --13-13-13-13-13-13-13-13---99999999-99999999-22244422--
   --11-11-11-11-11-11-11-11---77777777-99999999-22244422--
   --11-11-11-11-11-11-11-11---77777777-99999999-22244422--

   -------------------------------------------------
   -------------------------------------------------
   -------------------------------------------------
   --13-13-13-13-13-13-13-13---99999999-99999999-4--
   --11-11-11-11-11-11-11-11---77777777-99999999-4--
   --11-11-11-11-11-11-11-11---77777777-99999999-4--
Comments