Glassjaw - Motel Of The White Locust Chords & Tabs

 

Motel Of The White Locust Chords & Tabs

Glassjaw Chords & Tabs

Version: 1 Type: Bass Tab 0 ratings
1 star 2 stars 3 stars 4 stars 5 stars
comments

Motel Of The White Locust Bass Tab

   
Artist: Glassjaw
Song: Motel of the White Locust
Album: Everything You Ever Wanted To Know About Silence (2000)
Tuning: D-A-D-G
Notes: Use a pick
h - Hammer-On
p - Pull-Off
~ - Let Ring

Intro: 
G|-----------------------------------------------------------------|
D|-------------------------------------------------------------12--|
A|-------------------------------------------------------10h12-----|
D|--0-0-0----------0-0-0---------0-0-0~--------0-0-0---------------|

G|---------------------------------------------------------------|
D|-----------------------------------------------------------12--|
A|-----------------------------------------------------10h12-----|
D|--0-0-0---0--0-0-0-0-0-0--0--0-0-0-0--0-0-0-0-0-0-0------------|


Verse 1:
G|--------------------------------------------------------------|
D|--------------------------------------------------------------|
A|--------------------------------------------------5--3--------|
D|--0-0--0--0-0-0--0--0-0-0--0--0-0--0--0-0--0--0--5--3--2h3p2--| (x2)


Chorus:
G|------------------------------------------------------|
D|------------------------------------------------------|
A|-------------------------------------------------3-2--|
D|-0-0-0---------0-0-0---------0-0-0---------0-0-0-3-2--| (x2)

G|--------------------------------------------------------|
D|--------------------------------------------------------|
A|--------3p2-----------3p2-----------3p2------------3-2--|
D|-0-0-0-0---3p2-0-0-0-0---3p2-0-0-0-0---3p2-0-0-0-0-3-2--| (x2)
[ Tab from: http://www.guitartabs.cc/tabs/g/glassjaw/motel_of_the_white_locust_btab.html ]

Verse 2:
G|--------------------------------------------------------------|
D|--------------------------------------------------------------|
A|--------------------------------------------------5--3--------|
D|--0-0--0--0-0-0--0--0-0-0--0--0-0--0--0-0--0--0--5--3--2h3p2--| (x2)


Chorus:
G|------------------------------------------------------|
D|------------------------------------------------------|
A|-------------------------------------------------3-2--|
D|-0-0-0---------0-0-0---------0-0-0---------0-0-0-3-2--| (x2)

G|--------------------------------------------------------|
D|--------------------------------------------------------|
A|--------3p2-----------3p2-----------3p2------------3-2--|
D|-0-0-0-0---3p2-0-0-0-0---3p2-0-0-0-0---3p2-0-0-0-0-3-2--| (x2)


Interlude:
G|-----------------------------------------------------|
D|-----------------------------------------------------|
A|-----------------------------------------------------|
D|--0-0-0----------0-0-0---------0-0-0--0--0---0-0-0---|

  It gets difficult to tell what the bass is doing here
  Just play open D's
  You can hear the pull-offs in the right speaker
G|---------------------------------------|
D|---------------------------------------|
A|---------------------------------------|
D|--0-0-0-0-0-0-0-0-0--6p0-6p0-6p0-6p0---| (x2)


Outro:
G|---------------------------------------------------|
D|---------------------------------------------------|
A|---------------------------------------------------|
D|-0-0-0---------0-0-0---------0-0-0---------0-0-0---| (x4)
Comments