Glassjaw - Midwestern Stylings Chords & Tabs

 

Midwestern Stylings Chords & Tabs

Glassjaw Chords & Tabs

Version: 2 Type: Tab 0 ratings
1 star 2 stars 3 stars 4 stars 5 stars
comments

Midwestern Stylings Tab

Artist - GlassJAw
Song   - Midwestern Stylings (live & acoustic in studio)
Album  - n/a
Tuning - DADGBE
Tabbed by David Diuguid (aka bmskate/DEFreak13)
Date: 12/13/01


pm... = palm mute
^#    = bend (to note of #)
r#    = release bend (to note of #)
s     = slide
/\    = hammer on/off
<#>   = harmonic
(#)   = don't pick the note; slide down/up to that # or start at that # (relative, not approximate)


1st Verse - Guitar 1 (0:04)
|-----------------------------------------------------|
|-----------------------------------------------------|
|-6-6-6-6-6-6-6-6-6-6/7\6-6-6-6-6-6/7\6-6-6-6-6-6-7-6-|
|-x-x-x-x-x-x-0-0-0-0-----x-x-x-x-x-----x-x-x-x-x-x-x-|
|-4-4-4-4-4-4-0-0-0-0-----x-x-x-x-x-----x-x-x-x-x-x-x-|
|-------------7-7-7-7-----5-5-5-5-5-----5-5-5-5-5-5-5-|


Verse - Guitar 2
|----------0----7-----7----0---5-0-|
|------0------0---0-----0----0-----|
|-9/11-----------------------------|
|----------------------------------|
|----------------------------------|
|----------------------------------|


1st & 2nd Chorus - Both Guitars (0:30) (1:17)
pm................................................................
|-----------------------------------------------------------------|
|-----------------------------------------------------------------|
|-----------------------------------------------------------------|
|-6-6-6-6-6-6-6-6-6-6-6-6-6-6-6-6---------------------------------|
|-4-4-4-4-4-4-4-4-4-4-4-4-4-4-4-4-7-7-7-7-7-7-7-7-7-7-7-7-7-7-7-7-|
|---------------------------------7-7-7-7-7-7-7-7-7-7-7-7-7-7-7-7-|

pm................................................................
|-----------------------------------------------------------------|
|-----------------------------------------------------------------|
|-----------------------------------------------------------------|
|-----------------------------------------------------------------|
|-9-9-9-9-9-9-9-9-9-9-9-9-9-9-9-9-7-7-7-7-7-7-7-7-7-7-7-7-7-7-7-7-|
|-9-9-9-9-9-9-9-9-9-9-9-9-9-9-9-9-7-7-7-7-7-7-7-7-7-7-7-7-7-7-7-7-|


2nd & 3rd Verse - Guitar 2 (0:52)
"you'll witness my fallen chain that pushes away like a cancer..."
|-----------------------------------------------------|
|-5-5-5-5-5-5-5-5-5-5-----5-5-5-5-5-5-5-5-5-5-5-5-5-5-|
|-6-6-6-6-6-6-6-6-6-6/7\6-6-6-6-6-6/7\6-6-6-6-6-6-7-6-|
|-x-x-x-x-x-x-x-x-x-x-----x-x-x-x-x-----x-x-x-x-x-x-x-|
|-4-4-4-4-4-4-0-0-0-0-----x-x-x-x-x-----x-x-x-x-x-x-x-|
|-------------7-7-7-7-----5-5-5-5-5-----5-5-5-5-5-5-5-|


Fill (1:39)
|---|
|---|
|---|
|-0-|
|-0-|
|---|


Bridge - Guitar 1 (1:43)
"mind tricks the body, body thinks the mind is crazy..."
|-4--4-4--4--4--4--0--0-0--0--7-7-----0--7-7--7--7-7--7--7-7--7--7-7-|-----|
|-4--4-4--4--4--4--0--0-0--0--0-0-----0--0-0--0--0-0--0--0-0--0--0-0-|-----|
|-6--6-6--6--6--6--0--0-0--0--0-0-----0--0-0--0--0-0--0--0-0--0--0-0-|-----|
|-6--6-6--6--6--6--7--7-7--7--7-7-0-2-6--6-6--6--6-6--6--6-6--6--6-6-|-0-2-|
|-4--4-4--4--4--4--7--7-7--7--7-7-0-2-x--x-x--x--x-x--x--x-x--x--x-x-|-0-2-|
|-4--4-4--4--4--4--7--7-7--7--7-7-----7--7-7--7--7-7--7--7-7--7--7-7-|-0-2-|

[ Tab from: http://www.guitartabs.cc/tabs/g/glassjaw/midwestern_stylings_tab_ver_2.html ]
Bridge - Guitar 2 (1:43)
|--------------------------------------------------------------------|-----|
|--------5--5-5-4---------------------0--0-0--0--0-0--0--0-0--0--0-0-|-----|
|--------6--6-6-6---------------------0--0-0--0--0-0--0--0-0--0--0-0-|-----|
|--------6--6-6-6--6--6-4--4--4-6-----6--6-6--6--6-6--6--6-6--6--6-6-|-0-2-|
|--------4--4-4-4--x--x-x--x--x-x-----x--x-x--x--x-x--x--x-x--x--x-x-|-0-2-|
|------------------7--7-7--7--7-7-----7--7-7--7--7-7--7--7-7--7--7-7-|-0-2-|


3rd Verse Intro (lightly strum) (2:10)
"so best of luck to you and the burning barge that floats you through..."
|---|
|---|
|-6-|
|-x-|
|-4-|
|---|


Last Chorus - Both Guitars (until end) (2:36)
pm................................................................
|-----------------------------------------------------------------|
|-----------------------------------------------------------------|
|-----------------------------------------------------------------|
|-6-6-6-6-6-6-6-6-6-6-6-6-6-6-6-6-6-6-6-6-6-6-6-6-6-7-7-7-9-9-6-6-|
|-4-4-4-4-4-4-4-4-4-4-4-4-4-4-4-4-0-0-0-0-0-0-0-0-0-0-0-0-0-0-0-0-|
|-4-4-4-4-4-4-4-4-4-4-4-4-4-4-4-4-0-0-0-0-0-0-0-0-0-0-0-0-0-0-0-0-|

pm................................................................
|-----------------------------------------------------------------|
|-----------------------------------------------------------------|
|-----------------------------------------------------------------|
|-6-6-6-6-6-6-6-6-6-6-6-6-6-6-6-6-7-7-7-7-7-7-7-7-7-7-7-7-7-7-7-7-|
|-2-2-2-2-2-2-2-2-2-2-2-2-2-2-2-2-0-0-0-0-0-0-0-0-0-0-0-0-0-0-0-0-|
|-2-2-2-2-2-2-2-2-2-2-2-2-2-2-2-2-0-0-0-0-0-0-0-0-0-0-0-0-0-0-0-0-|

pm................................................................
|-----------------------------------------------------------------|
|-----------------------------------------------------------------|
|-6-6-6-6-6-6-6-6-6-6-6-6-6-6-6-6---------------------------------|
|-6-6-6-6-6-6-6-6-6-6-6-6-6-6-6-6-6-6-6-6-6-6-6-7-7-7-9-9-9-7-7-7-|
|-4-4-4-4-4-4-4-4-4-4-4-4-4-4-4-4-0-0-0-0-0-0-0-0-0-0-0-0-0-0-0-0-|
|-4-4-4-4-4-4-4-4-4-4-4-4-4-4-4-4-0-0-0-0-0-0-0-0-0-0-0-0-0-0-0-0-|

pm................................................................
|-----------------------------------------------------------------|
|-----------------------------------------------------------------|
|-----------------------------------------------------------------|
|-6-6-6-6-6-6-6-6-6-6-6-6-6-6-6-6-7-7-7-7-7-7-7-7-7-7-7-7-7-7-7-7-|
|-2-2-2-2-2-2-2-2-2-2-2-2-2-2-2-2-0-0-0-0-0-0-0-0-0-0-0-0-0-0-0-0-|
|-2-2-2-2-2-2-2-2-2-2-2-2-2-2-2-2-0-0-0-0-0-0-0-0-0-0-0-0-0-0-0-0-|

(3:01)
|-0-----------0-----------0------------------0----0-0-0----0------|
|-0-----------0-----------0------------------0----0-0-0----0------|
|-6-6-6-6-6-6-6-6-6-6-6-6-6-6-6-6-x-x-x-x-x-x-x-x-x-x-x-x-x-x-x-x-|
|-6-6-6-6-6-6-6-6-6-6-6-6-6-6-6-6-0-0-0-0-0-0-0-0-0-0-0-0-0-0-0-0-|
|-4-4-4-4-4-4-4-4-4-4-4-4-4-4-4-4-0-0-0-0-0-0-0-0-0-0-0-0-0-0-0-0-|
|-4-4-4-4-4-4-4-4-4-4-4-4-4-4-4-4-0-0-0-0-0-0-0-0-0-0-0-0-0-0-0-0-|

|-----------------------------------------------------------------|
|-----------------------------------------------------------------|
|-----------------------------------------------------------------|
|-2-2-2-2-2-2-2-2-2-2-2-2-2-2-2-2-0-0-0-0-0-0-0-0-0-0-0-0-0-0-0-0-|
|-2-2-2-2-2-2-2-2-2-2-2-2-2-2-2-2-0-0-0-0-0-0-0-0-0-0-0-0-0-0-0-0-|
|-2-2-2-2-2-2-2-2-2-2-2-2-2-2-2-2-0-0-0-0-0-0-0-0-0-0-0-0-0-0-0-0-|


Last Chorus - Guitar 2 (3:01)
|--------4---------|-9-9---7-7-7-7-7-|
|--4--5----4-4-4-4-|-9-9---7-7-7-7-7-|
|------------------|-----------------|
|------------------|-----------------|
|------------------|-----------------|
|------------------|-----------------|


comments: 	these chords ***en blow
	    	listen to the song to get the timing down

If you have any questions or comments, contact me via e-mail bmskate@hotmail.com or on Instant Messenger 
DEFreak13
Comments