Glassjaw - Midwestern Stylings Chords & Tabs

 

Midwestern Stylings Chords & Tabs

Glassjaw Chords & Tabs

Version: 1 Type: Tab 0 ratings
1 star 2 stars 3 stars 4 stars 5 stars
comments

Midwestern Stylings Tab

   
Band: GlassJAw
Album: Kiss Kiss Bang Bang
Song: "Midwestern Stylings"
Tabber: Tom Lasala

This is all my own work and interpretation of the song but I can ensure
you that it's very accurate.This is the acoustic version!

D-tuned

1st gtr. 4x
--------------------------------------------------------------|
--------------------------------------------------------------|
-6-6-6-6-6-6-6-6--6-6--6-6-6-6-6-6-6-6h7p6--6-6--6-6--6-7-6---|
------------------0-0--0-0-0----------------------------------|
-4-4-4-4-4-4-4-4--0-0--0-0-0-5-5-5-5-5------5-5--5-5--5-5-5---|
--------------------------------------------------------------|

2nd gtr. (comes in when 1st gtr. plays the riff^ for the 3rd time)
---------7---------------7----------------------5-----------5-
-----5-------5-------5-------5-------5------------------------
-6---------------6---------------6-----------6----------6-----
-----------------------------------------7----------7---------
--------------------------------------------------------------
--------------------------------------------------------------

cont'D
---------7---------------7---------------7-7-7-7-7-7-7-7-7-7--|
-----5-------5-------5-------5-------5---5-5-5-5-5-5-5-5-5-5--|
-6---------------6---------------6----------------------------|
--------------------------------------------------------------|
--------------------------------------------------------------|
--------------------------------------------------------------|

______________________________________________________________________


1st gtr. 2x          palm mute
----------------------------------------------------][----------------]
----------------------------------------------------][----------------]
----------------------------------------------------][----------------]
-4444444444444444-0000000000000000-2222222222222222-][0000000000000000]
-4444444444444444-0000000000000000-2222222222222222-][0000000000000000]
-4444444444444444-0000000000000000-2222222222222222-][0000000000000000]

______________________________________________________________________


1st gtr. 4x
-----------------------------------------------------------------|
-----------------------------------------------------------------|
-6-6-6-6-6-6-6-6--6-6--6-6-6-6-6-6-6-6h7p6--6-6--6-6--6-7-6------|
------------------0-0--0-0-0-------------------------------------|
-4-4-4-4-4-4-4-4--0-0--0-0-0-5-5-5-5-5------5-5--5-5--5-5-5------|
-----------------------------------------------------------------|

2nd gtr.
---------7---------------7-----------7----------------------------
-----5-------5-------5-------5-----------5---------------5--------
-6---------------6---------------6-----------6-------6-------6----
-------------------------------------------------7----------------
------------------------------------------------------------------
------------------------------------------------------------------
cont'D
------------------------------------------------------------------
---------5---------------5---------------5---------------5--------
-----6-------6-------6-------6-------6-------6-------6-------6----
-7---------------7---------------7---------------7----------------
------------------------------------------------------------------
------------------------------------------------------------------
cont'D
-----5------------------------------------------------------------
---------5---------------5---------------5---------------5--------
-------------6-------6-------6-------6-------6-------6-------6----
-7---------------7---------------7---------------7----------------
------------------------------------------------------------------
------------------------------------------------------------------
cont'D
-------------------------5---------------5---------------5--------|
---------5-------------------------------5---------------5--------|
-----6-------6-------6-------6-------6-------6-------6-------6----|
-7---------------7---------------7---------------7----------------|
------------------------------------------------------------------|
------------------------------------------------------------------|

______________________________________________________________________

[ Tab from: http://www.guitartabs.cc/tabs/g/glassjaw/midwestern_stylings_tab.html ]
1st gtr. 2x          palm mute
----------------------------------------------------------------------|
----------------------------------------------------------------------|
----------------------------------------------------------------------|
-4444444444444444-0000000000000000-2222222222222222-0000000000000000--|
-4444444444444444-0000000000000000-2222222222222222-0000000000000000--|
-4444444444444444-0000000000000000-2222222222222222-0000000000000000--|

______________________________________________________________________

1st gtr. 2x
-------------------------------------------------------------][----]
-------------------------------------------------------------][----]
-------------------------------------------------------------][----]
-6--66-6-666644-0--0000--00001-0--00-0-000000-0--00-0-000002-][-02-]
-4--44-4-444444-0--0000--00001-0--00-0-000000-0--00-0-000002-][-02-]
-4--44-4-444444-0--0000--00001-0--00-0-000000-0--00-0-000002-][-02-]

2nd gtr. 2x
---------444----------5--777---777777777777777777777777777----|
-------5-555555-------5--555---555555555555555555555555555----|
-------6-666666-------6--666---666666666666666666666666666----|
--------------------------------------------------------------|
--------------------------------------------------------------|
--------------------------------------------------------------|

______________________________________________________________________

2nd gtr. 1x
----------------------------------------------|
----------------------------------------------|
-6-6-66-6-66---6-6-66-6-66---6-6-66-6-6-6-6---|
----------------------------------------------|
-4----4-4--4---4----4-4--4---4----4-4-4---4---|
----------------------------------------------|

______________________________________________________________________

1st gtr. 2x
--------------------------------------------------------------|
--------------------------------------------------------------|
-6-6-6-6-6-6-6-6--6-6--6-6-6-6-6-6-6-6--6-6--6-6--6-7-6-------|
------------------0-0--0-0-0----------------------------------|
-4-4-4-4-4-4-4-4--0-0--0-0-0-5-5-5-5-5--5-5--5-5--5-5-5-------|
--------------------------------------------------------------|

2nd gtr.
---------7---------------7----------------------5-----------5-
-----5-------5-------5-------5-------5------------------------
-6---------------6---------------6-----------6----------6-----
-----------------------------------------7----------7---------
--------------------------------------------------------------
--------------------------------------------------------------

cont'D
---------7---------------7---------------7-7-7-7-7-7-7-7-7-7--|
-----5-------5-------5-------5-------5---5-5-5-5-5-5-5-5-5-5--|
-6---------------6---------------6----------------------------|
--------------------------------------------------------------|
--------------------------------------------------------------|
--------------------------------------------------------------|

______________________________________________________________________


1st gtr. 2x          palm mute
----------------------------------------------------------------------|
----------------------------------------------------------------------|
----------------------------------------------------------------------|
-4444444444444444-0000000000000000-2222222222222222-0000000000000000--|
-4444444444444444-0000000000000000-2222222222222222-0000000000000000--|
-4444444444444444-0000000000000000-2222222222222222-0000000000000000--|

______________________________________________________________________


1st gtr. 1 1/2x (because 2nd gtr. busted a string)
-------------------------------------------------------------|
-------------------------------------------------------------|
-------------------------------------------------------------|
-6--66-6-666644-0--0000--00000-1--11-1-111111-0--00-0-000000-|
-4--44-4-444444-0--0000--00000-1--11-1-111111-0--00-0-000000-|
-4--44-4-444444-0--0000--00000-1--11-1-111111-0--00-0-000000-|

2nd gtr. 1x
-4-----4--44444-0----00----000-------------------------------|
-5-----5--55555-5--5555--55555-------------------------------|
-6-----6--66666-6--6666--66666-------------------------------|
-------------------------------------------------------------|
-------------------------------------------------------------|
-------------------------------------------------------------|
Comments