Glassjaw - Last Kiss Chords & Tabs

 

Last Kiss Chords & Tabs

Glassjaw Chords & Tabs

Version: 1 Type: Tab 0 ratings
1 star 2 stars 3 stars 4 stars 5 stars
comments

Last Kiss Tab

Artist: GLASSJAW
Song: Last kiss
Tabber: Tom Lasala
Location: L.I NEW YORK HOME OF THE "GLASSJAW" AkA THE GLASSJAW

E |----------------------------------------------|
B |----------------------------------------------|
G |----------------------------------------------|
D |----------------------------------------------|
A |-0-1-0-1-0-1-0-1-0-1--0-1-0-1-0-1-0-1-0-0-0-0-|
D |-0-1-0-1-0-1-0-1-0-1--0-1-0-1-0-1-0-1-0-0-0-0-|
    p   p   p   p   p    p   p   p   p   p p p p


|-----------------|
|-----------------|
|-----------------|
|-8-8-8-8-8-8-8-8-|
|-5-5-5-5-5-5-5-5-|
|-5-5-5-5-5-5-5-5-| x4


|----------------------------------------------|
|----------------------------------------------|
|----------------------------------------------|
|----------------------------------------------|
|-0-1-0-1-0-1-0-1-0-1--0-1-0-1-0-1-0-1-0-0-0-0-|
|-0-1-0-1-0-1-0-1-0-1--0-1-0-1-0-1-0-1-0-0-0-0-|
  p   p   p   p   p    p   p   p   p   p p p p


|-----------------|
|-----------------|
|-----------------|
|-8-8-8-8-8-8-8-8-|
|-5-5-5-5-5-5-5-5-|
|-5-5-5-5-5-5-5-5-| x6


|-------------------|
|-------------------|
|-------------------|
|-------------------|
|-1-0-0-0-1-0-0-0-1-|
|-1-0-0-0-1-0-0-0-1-|
    p p p   p p p


|----------------------------------------------|
|----------------------------------------------|
|----------------------------------------------|
|----------------------------------------------|
|-0-1-0-1-0-1-0-1-0-1--0-1-0-1-0-1-0-1-0-0-0-0-|
|-0-1-0-1-0-1-0-1-0-1--0-1-0-1-0-1-0-1-0-0-0-0-|
  p   p   p   p   p    p   p   p   p   p p p p


|-----------------|
|-----------------|
|-----------------|
|-8-8-8-8-8-8-8-8-|
|-5-5-5-5-5-5-5-5-|
|-5-5-5-5-5-5-5-5-| x4


|----------------------------------------------|
|----------------------------------------------|
|----------------------------------------------|
|----------------------------------------------|
|-0-1-0-1-0-1-0-1-0-1--0-1-0-1-0-1-0-1-0-0-0-0-|
|-0-1-0-1-0-1-0-1-0-1--0-1-0-1-0-1-0-1-0-0-0-0-|
  p   p   p   p   p    p   p   p   p   p p p p|-----------------|
|-----------------|
|-----------------|
|-8-8-8-8-8-8-8-8-|
|-5-5-5-5-5-5-5-5-|
|-5-5-5-5-5-5-5-5-| x6

[ Tab from: http://www.guitartabs.cc/tabs/g/glassjaw/last_kiss_tab.html ]
|-----------------------------------------------------------------|
|-----------------------------------------------------------------|
|-----------------------------------------------------------------|
|-----------------------------------------------------------------|
|-1-0-0-0-1-0-0-0-1--1-0-0-0-1-0-0-0-1--4-4-4-3-3-3-4-4-4-2-2-2-1-|
|-1-0-0-0-1-0-0-0-1--1-0-0-0-1-0-0-0-1--4-4-4-3-3-3-4-4-4-2-2-2-1-|
    p p p   p p p      p p p   p p p    p p p p p p p p p p p p


|---------------------------|
|---------------------------|
|---------------------------|
|-6-6-6-5-5-5-6-6-6-4-4-4-3-|
|-4-4-4-3-3-3-4-4-4-2-2-2-1-|
|-4-4-4-3-3-3-4-4-4-2-2-2-1-|


|---------------------------------|
|---7-5-7---7-5-7---8-5-8---8-5-8-|
|-7-------7-------7-------7-------|
|---------------------------------|
|---------------------------------|
|---------------------------------|x4


|-------------|
|-------------|
|-------------|
|-------------|
|-4-2-1-3-4-2-|
|-4-2-1-3-4-2-|


|--------------------------------------------------------------|
|--------------------------------------------------------------|
|------------------------------------------------------------0-|
|------------------------------------------------------------0-|
|------------------------------------------------------------0-|
|-0-0-0-0-0-0-0-0--0-0-0-0-0-0-0-0--0-0-0-0-0-0-0-0--0-0-0-0---| x2
  p p p p p p p p  p p p p p p p p  p p p p p p p p  p p p p


|---------------------------------|
|---7-5-7---7-5-7---8-5-8---8-5-8-|
|-7-------7-------7-------7-------|
|---------------------------------|
|---------------------------------|
|---------------------------------| x4


|-------------|
|-------------|
|-------------|
|-------------|
|-4-2-1-3-4-2-|
|-4-2-1-3-4-2-|


|---------------------------------------|
|---------------------------------------|
|---------------------------------------|
|---------------------------------------|
|-0-0-0-0-0-0-0-0--0-0-0-0--4-2-1-3-4-2-|
|-0-0-0-0-0-0-0-0--0-0-0-0--4-2-1-3-4-2-| x3
  p p p p p p p p  p p p p   


|-------------------------------------------------------|
|-------------------------------------------------------|
|-------------------------------------------------------|
|-------------------------------------------------------|
|-------------------------------------------------------|
|-0-0-0-0-4-5-0-0-0-4-5-0-0-0-0-4-5-0-0-0-4-5-6-5-4-6-5-| x2
  p p p p     p p p     p p p p     p p p


|---------------------------------|
|---7-5-7---7-5-7---8-5-8---8-5-8-|
|-7-------7-------7-------7-------|
|---------------------------------|
|---------------------------------|
|---------------------------------| x4


|-------------|
|-------------|
|-------------|
|-------------|
|-1-0-0-0-0-1-|
|-1-0-0-0-0-1-|
    p p p p
Comments