Glass Towers - Tonight Chords & Tabs

 

Tonight Chords & Tabs

Glass Towers Chords & Tabs

Version: 1 Type: Tab 0 ratings
1 star 2 stars 3 stars 4 stars 5 stars
comments

Tonight Tab

-------------------------------------------------------------------------------
                            Tonight - Glass Towers
-------------------------------------------------------------------------------
Tabbed by: SkAyt3r
E-mail: tias.11@hotmail.com

Tuning: Standard (Lead Guitar)
        Capo 4th (Rhythm Guitar)

/ - slide (eg /5 slide up fretboard to 5th; 5/ slide down from 5th)
d - double note (two eighth notes meant to be played instead of one quarter note;
 for formatting/layout of tab)

  Lead Guitar

Intro (0:00 - 0:24) Anacrusis start
 
|-------------------|-------------------|-------------------|--------------16-16|
|-------------------|-------------------|-------------------|-------------------|
|-------------------|-------------------|-------------------|-------------------|
|-------------------|-------------------|-------------------|-------------------|
|-------------------|-------------------|-------------------|-------------------|
|-------------------|-------------------|-------------------|-------------------|

|-16--14--14-16-14--|--------------16-16|-16--14--14-16-14--|--------------16-16|
|-----------------14|--16--16--16-------|-----------------14|--16--16--16-------|
|-------------------|-------------------|-------------------|-------------------|
|-------------------|-------------------|-------------------|-------------------|
|-------------------|-------------------|-------------------|-------------------|
|-------------------|-------------------|-------------------|-------------------|

|-16--14--14-16-14--|--------------16-16|-16--14--14-16-14--|-------------------|
|-----------------14|--16--16--16-------|-----------------14|--16--16--14--12---|
|-------------------|-------------------|-------------------|-------------------|
|-------------------|-------------------|-------------------|-------------------|
|-------------------|-------------------|-------------------|-------------------|
|-------------------|-------------------|-------------------|-------------------|

Verse 1 (0:24 - 0:49)
 

|-----11----11------|--11------------11-|-----11----11------|--11------------11-|
|---12--12----12-14-|----14-12-----12---|---12--12----12-14-|----14-12-----12---|
|-13------13--------|------------13-----|-13------13--------|------------13-----|
|-------------------|-------------------|-------------------|-------------------|
|-------------------|-------------------|-------------------|-------------------|
|-------------------|-------------------|-------------------|-------------------|

|-----11----11------|--11------------11-|-----11----11------|--11------------11-|
|---12--12----12-14-|----14-12-----12---|---12--12----12-14-|----14-12-----12---|
|-13------13--------|------------13-----|-13------13--------|------------13-----|
|-------------------|-------------------|-------------------|-------------------|
|-------------------|-------------------|-------------------|-------------------|
|-------------------|-------------------|-------------------|-------------------|

Chorus (0:49 - 1:17)

|-------------------|--12d-12d-11d-11d--|-------------------|--12d-12d-11d-11d--|
|--12d-12d-11d-11d--|-------------------|--12d-12d-11d-11d--|-------------------|
|-------------------|-------------------|-------------------|-------------------|
|-------------------|-------------------|-------------------|-------------------|
|-------------------|-------------------|-------------------|-------------------|
|-------------------|-------------------|-------------------|-------------------|

|-------------------|--12d-12d-11d-11d--|-------------------|-------------------|
|--12d-12d-11d-11d--|-------------------|--14d-14d-14d-14d--|--12d-12d-12d-12d--|
|-------------------|-------------------|-------------------|-------------------|
|-------------------|-------------------|-------------------|-------------------|
|-------------------|-------------------|-------------------|-------------------|
|-------------------|-------------------|-------------------|-------------------|

|-------------------|--12d-12d-11d-11d--|-------------------|--12d-12d-11d-11d--|
|--12d-12d-11d-11d--|-------------------|--12d-12d-11d-11d--|-------------------|
|-------------------|-------------------|-------------------|-------------------|
|-------------------|-------------------|-------------------|-------------------|
|-------------------|-------------------|-------------------|-------------------|
|-------------------|-------------------|-------------------|-------------------|

|-------------------|--12d-12d-11d-11d--|-------------------|-------------------|
|--12d-12d-11d-11d--|-------------------|--14d-14d-14d-14d--|--12d-12d-12d-12d--|
|-------------------|-------------------|-------------------|-------------------|
|-------------------|-------------------|-------------------|-------------------|
|-------------------|-------------------|-------------------|-------------------|
|-------------------|-------------------|-------------------|-------------------|

|--16--16--16d--16--|-16--16--16---16-16|
|-------------------|-------------------|
|-------------------|-------------------|
|-------------------|-------------------|
|-------------------|-------------------|
|-------------------|-------------------|

Post Chorus (1:17 - 1:29)

|-16--14--14-16-14--|--------------16-16|-16--14--14-16-14--|--------------16-16|
|-----------------14|--16--16--16-------|-----------------14|--16--16--16-------|
|-------------------|-------------------|-------------------|-------------------|
|-------------------|-------------------|-------------------|-------------------|
|-------------------|-------------------|-------------------|-------------------|
|-------------------|-------------------|-------------------|-------------------|

|-16--14--14-16-14--|--------------16-16|-16--14--14-16-14--|-------------------|
|-----------------14|--16--16--16-------|-----------------14|--16--16--14--12---|
|-------------------|-------------------|-------------------|-------------------|
|-------------------|-------------------|-------------------|-------------------|
|-------------------|-------------------|-------------------|-------------------|
|-------------------|-------------------|-------------------|-------------------|

Verse 2 (1:29 - 1:54)
 

|-----11----11------|--11------------11-|-----11----11------|--11------------11-|
|---12--12----12-14-|----14-12-----12---|---12--12----12-14-|----14-12-----12---|
|-13------13--------|------------13-----|-13------13--------|------------13-----|
|-------------------|-------------------|-------------------|-------------------|
|-------------------|-------------------|-------------------|-------------------|
|-------------------|-------------------|-------------------|-------------------|

|-----11----11------|--11------------11-|-----11----11------|--11------------11-|
|---12--12----12-14-|----14-12-----12---|---12--12----12-14-|----14-12-----12---|
|-13------13--------|------------13-----|-13------13--------|------------13-----|
|-------------------|-------------------|-------------------|-------------------|
|-------------------|-------------------|-------------------|-------------------|
|-------------------|-------------------|-------------------|-------------------|

Chorus (1:54 - 2:22)

|-------------------|--12d-12d-11d-11d--|-------------------|--12d-12d-11d-11d--|
|--12d-12d-11d-11d--|-------------------|--12d-12d-11d-11d--|-------------------|
|-------------------|-------------------|-------------------|-------------------|
|-------------------|-------------------|-------------------|-------------------|
|-------------------|-------------------|-------------------|-------------------|
|-------------------|-------------------|-------------------|-------------------|

|-------------------|--12d-12d-11d-11d--|-------------------|-------------------|
|--12d-12d-11d-11d--|-------------------|--14d-14d-14d-14d--|--12d-12d-12d-12d--|
|-------------------|-------------------|-------------------|-------------------|
|-------------------|-------------------|-------------------|-------------------|
|-------------------|-------------------|-------------------|-------------------|
|-------------------|-------------------|-------------------|-------------------|

|-------------------|--12d-12d-11d-11d--|-------------------|--12d-12d-11d-11d--|
|--12d-12d-11d-11d--|-------------------|--12d-12d-11d-11d--|-------------------|
|-------------------|-------------------|-------------------|-------------------|
|-------------------|-------------------|-------------------|-------------------|
|-------------------|-------------------|-------------------|-------------------|
|-------------------|-------------------|-------------------|-------------------|

|-------------------|--12d-12d-11d-11d--|-------------------|-------------------|
|--12d-12d-11d-11d--|-------------------|--14d-14d-14d-14d--|--12d-12d-12d-12d--|
|-------------------|-------------------|-------------------|-------------------|
|-------------------|-------------------|-------------------|-------------------|
|-------------------|-------------------|-------------------|-------------------|
|-------------------|-------------------|-------------------|-------------------|

|--16--16--16d--16--|--16--16--16--16---|
|-------------------|-------------------|
|-------------------|-------------------|
|-------------------|-------------------|
|-------------------|-------------------|
|-------------------|-------------------|

Post Chorus (2:22 - 2:38)

|---------/16--/16--|---------/16--/16--|---------/16--/16--|---------/16--/16--|
|-------------------|-------------------|-------------------|-------------------|
|-------------------|-------------------|-------------------|-------------------|
|-------------------|-------------------|-------------------|-------------------|
|-------------------|-------------------|-------------------|-------------------|
|-------------------|-------------------|-------------------|-------------------|

|---------/16--/16--|---------/16--/16--|---------/16--/16--|---------/16--/16--|
|-------------------|-------------------|-------------------|-------------------|
|-------------------|-------------------|-------------------|-------------------|
|-------------------|-------------------|-------------------|-------------------|
|-------------------|-------------------|-------------------|-------------------|
|-------------------|-------------------|-------------------|-------------------|

|--16---------------|-------------------|
|-------------------|-------------------|
|-------------------|-------------------|
|-------------------|-------------------|
|-------------------|-------------------|
|-------------------|-------------------|

Bridge (2:38 - 3:40) *[read at bottom]
 

|-11-------------11-|-------------------|-11-------------11-|-------------------|
|-----14------------|----14-------------|-----14------------|---14--------------|
|--------13-13-13---|--------13--13--13-|--------13-13-13---|--------13--13--13-|
|-------------------|-------------------|-------------------|-------------------|
|-------------------|-------------------|-------------------|-------------------|
|-------------------|-------------------|-------------------|-------------------|

|-11-------------11-|-------------------|-11-------------11-|-------------------|
|-----14------------|----14-------------|-----14------------|---14--------------|
|--------13-13-13---|--------13--13--13-|--------13-13-13---|--------13--13--13-|
|-------------------|-------------------|-------------------|-------------------|
|-------------------|-------------------|-------------------|-------------------|
|-------------------|-------------------|-------------------|-------------------|

|-11-------------11-|-------------------|-11-------------11-|-------------------|
|-----14------------|----14-------------|-----14------------|---14--------------|
|--------13-13-13---|--------13--13--13-|--------13-13-13---|--------13--13--13-|
|-------------------|-------------------|-------------------|-------------------|
|-------------------|-------------------|-------------------|-------------------|
|-------------------|-------------------|-------------------|-------------------|

|-11-------------11-|-------------------|-11-------------11-|-------------------|
|-----14------------|----14-------------|-----14------------|---14--------------|
|--------13-13-13---|--------13--13--13-|--------13-13-13---|--------13--13--13-|
|-------------------|-------------------|-------------------|-------------------|
|-------------------|-------------------|-------------------|-------------------|
|-------------------|-------------------|-------------------|-------------------|

|-11-------------11-|-------------------|-11-------------11-|-------------------|
|-----14------------|----14-------------|-----14------------|---14--------------|
|--------13-13-13---|--------13--13--13-|--------13-13-13---|--------13--13--13-|
|-------------------|-------------------|-------------------|-------------------|
|-------------------|-------------------|-------------------|-------------------|
|-------------------|-------------------|-------------------|-------------------|

|-11-------------11-|-------------------|-11-------------11-|-------------------|
|-----14------------|----14-------------|-----14------------|---14--------------|
|--------13-13-13---|--------13--13--13-|--------13-13-13---|--------13--13--13-|
|-------------------|-------------------|-------------------|-------------------|
|-------------------|-------------------|-------------------|-------------------|
|-------------------|-------------------|-------------------|-------------------|

|-11-------------11-|-------------------|-11-------------11-|-------------------|
|-----14------------|----14-------------|-----14------------|---14--------------|
|--------13-13-13---|--------13--13--13-|--------13-13-13---|--------13--13--13-|
|-------------------|-------------------|-------------------|-------------------|
|-------------------|-------------------|-------------------|-------------------|
|-------------------|-------------------|-------------------|-------------------|

|-11-------------11-|-------------------|-11-------------11-|-------------------|
|-----14------------|----14-------------|-----14------------|---14--------------|
|--------13-13-13---|--------13--13--13-|--------13-13-13---|--------13--13--13-|
|-------------------|-------------------|-------------------|-------------------|
|-------------------|-------------------|-------------------|-------------------|
|-------------------|-------------------|-------------------|-------------------|

Outro (3:40 - 3:59)

|-------------------|-------------------|-------------------|-------------------|
|----------------12-|-----12---11---11--|----------------12-|-----12---11---11--|
|--13----11--11-----|-------------------|--13----11--11-----|-------------------|
|-------------------|-------------------|-------------------|-------------------|
|-------------------|-------------------|-------------------|-------------------|
|-------------------|-------------------|-------------------|-------------------|

|-------------------|-------------------|-------------------|-------------------|
|----------------12-|-----12---11---11--|----------------12-|-----12---11---11--|
|--13----11--11-----|-------------------|--13----11--11-----|-------------------|
|-------------------|-------------------|-------------------|-------------------|
|-------------------|-------------------|-------------------|-------------------|
|-------------------|-------------------|-------------------|-------------------|

|-------------------|-------------------|-------------------|------------------||
|-------------------|-------------------|-------------------|------------------||
|--13---------------|-------------------|-------------------|------------------||
|-------------------|-------------------|-------------------|------------------||
|-------------------|-------------------|-------------------|------------------||
|-------------------|-------------------|-------------------|------------------||


  Rhythm Guitar (relative to capo)

Intro (0:00 - 0:24) Anacrusis start

----|-------------------|-------------------|-------------------|-------------------|
-1-1|--1---1---1-1-1-0--|----0-0-0-0-0-0-1-1|--1---1---1-1-1-0--|----0-0-0-0-0-0-1-1|
-0-0|--0---0---0-0-0-2--|----2-2-4-4-0-0-0-0|--0---0---0-0-0-2--|----2-2-4-4-0-0-2-2|
-2-2|--2---2---2-2-2-2--|----2-2-2-2-2-2-2-2|--2---2---2-2-2-2--|----2-2-2-2-2-2-0-0|
-3-3|--3---3---3-3-3-0--|----0-0-0-0-0-0-3-3|--3---3---3-3-3-0--|----0-0-0-0-0-0-3-3|
----|--#---#---#---#----|--#---#---#---#----|--#---#---#---#----|--#---#---#---#----|
[ Tab from: http://www.guitartabs.cc/tabs/g/glass_towers/tonight_tab.html ]
|-------------------|-------------------|-------------------|-------------------|
|--1---1---1-1-1-0--|----0-0-0-0-0-0-1-1|--1---1---1-1-1-0--|----0-0-0-0-0------|
|--0---0---0-0-0-2--|----2-2-4-4-0-0-2-2|--0---0---0-0-0-2--|----2-2-2-2-2------|
|--2---2---2-2-2-2--|----2-2-2-2-2-2-0-0|--2---2---2-2-2-2--|----2-2-2-2-2------|
|--3---3---3-3-3-0--|----0-0-0-0-0-0-3-3|--3---3---3-3-3-0--|----0-0-0-0-0------|
|--#---#---#---#----|--#---#---#---#----|--#---#---#---#----|--#---#---#---#----|

|-------------------|-------------------|-------------------|-------------------|
|--1---1---1-1-1-0--|----0-0-0-0-0-0-1-1|--1---1---1-1-1-0--|----0-0-0-0-0-0-1-1|
|--0---0---0-0-0-2--|----2-2-4-4-0-0-2-2|--0---0---0-0-0-2--|----2-2-4-4-0-0-2-2|
|--2---2---2-2-2-2--|----2-2-2-2-2-2-0-0|--2---2---2-2-2-2--|----2-2-2-2-2-2-0-0|
|--3---3---3-3-3-0--|----0-0-0-0-0-0-3-3|--3---3---3-3-3-0--|----0-0-0-0-0-0-3-3|
|--#---#---#---#----|--#---#---#---#----|--#---#---#---#----|--#---#---#---#----|

|-------------------|-------------------|-------------------|-------------------|
|--1---1---1-1-1-0--|----0-0-0-0-0-0-1-1|--1---1---1-1-1-0--|----0-0-0---0-0-1-1|
|--0---0---0-0-0-2--|----2-2-4-4-0-0-2-2|--0---0---0-0-0-2--|----2-2-4---0-0-2-2|
|--2---2---2-2-2-2--|----2-2-2-2-2-2-0-0|--2---2---2-2-2-2--|----2-2-2---2-2-0-0|
|--3---3---3-3-3-0--|----0-0-0-0-0-0-3-3|--3---3---3-3-3-0--|----0-0-0---0-0-3-3|
|--#---#---#---#----|--#---#---#---#----|--#---#---#---#----|--#---#---#---#----|

Verse 1 (0:24 - 0:49)
 

|-------------------|-------------------|-------------------|-------------------|
|--1-1-1-1-1-1-1-1--|----1-1-1---1-1-1--|--1-1-1-1-1-1-1-1--|----1-1-1---1-1-1--|
|--0-0-0-0-0-0-0-2--|----2-2-2---2-2-2--|--0-0-0-0-0-0-0-2--|----2-2-2---2-2-2--|
|--2-2-2-2-2-2-2-2--|----2-2-2---2-2-2--|--2-2-2-2-2-2-2-2--|----2-2-2---2-2-2--|
|--3-3-3-3-3-3-3-0--|----0-0-0---0-0-0--|--3-3-3-3-3-3-3-0--|----0-0-0---0-0-0--|
|--#---#---#---#----|--#---#---#---#----|--#---#---#---#----|--#---#---#---#----|

|-------------------|-------------------|-------------------|-------------------|
|--1-1-1-1-1-1-1-1--|----1-1-1---1-1-1--|--1-1-1-1-1-1-1-1--|----1-1-1---1-1-1--|
|--0-0-0-0-0-0-0-2--|----2-2-2---2-2-2--|--0-0-0-0-0-0-0-2--|----2-2-2---2-2-2--|
|--2-2-2-2-2-2-2-2--|----2-2-2---2-2-2--|--2-2-2-2-2-2-2-2--|----2-2-2---2-2-2--|
|--3-3-3-3-3-3-3-0--|----0-0-0---0-0-0--|--3-3-3-3-3-3-3-0--|----0-0-0---0-0-0--|
|--#---#---#---#----|--#---#---#---#----|--#---#---#---#----|--#---#---#---#----|

Chorus (0:49 - 1:17)

|--3---3---3-3-3-2--|----2-2-2---2-2-0-0|--0---0---0-0-0-0--|----0-0-0---0-0-3-3|
|--3---3---3-3-3-3--|----3-3-3---3-3-1-1|--1---1---1-1-1-1--|----1-1-1---1-1-3-3|
|--4---4---4-4-4-4--|----4-4-4---4-4-2-2|--0---0---0-0-0-2--|----2-2-2---2-2-4-4|
|--5---5---5-5-5-4--|----4-4-4---4-4-0-0|--2---2---2-2-2-2--|----2-2-2---2-2-5-5|
|--5---5---5-5-5-2--|----2-2-2---2-2-3-3|--3---3---3-3-3-0--|----0-0-0---0-0-5-5|
|--3---3---3-3-3-2--|----2-2-2---2-2----|-------------------|----------------3-3|

|--3---3---3-3-3-2--|----2-2-2---2-2-0-0|--0---0---0-0-0-0--|----0-0-0---0-0-3-3|
|--3---3---3-3-3-3--|----3-3-3---3-3-1-1|--1---1---1-1-1-1--|----1-1-1---1-1-3-3|
|--4---4---4-4-4-4--|----4-4-4---4-4-2-2|--0---0---0-0-0-2--|----2-2-2---2-2-4-4|
|--5---5---5-5-5-4--|----4-4-4---4-4-0-0|--2---2---2-2-2-2--|----2-2-2---2-2-5-5|
|--5---5---5-5-5-2--|----2-2-2---2-2-3-3|--3---3---3-3-3-0--|----0-0-0---0-0-5-5|
|--3---3---3-3-3-2--|----2-2-2---2-2----|-------------------|----------------3-3|

|--3---3---3-3-3-2--|----2-2-2---2-2-0-0|--0---0---0-0-0-0--|----0-0-0---0-0-3-3|
|--3---3---3-3-3-3--|----3-3-3---3-3-1-1|--1---1---1-1-1-1--|----1-1-1---1-1-3-3|
|--4---4---4-4-4-4--|----4-4-4---4-4-2-2|--0---0---0-0-0-2--|----2-2-2---2-2-4-4|
|--5---5---5-5-5-4--|----4-4-4---4-4-0-0|--2---2---2-2-2-2--|----2-2-2---2-2-5-5|
|--5---5---5-5-5-2--|----2-2-2---2-2-3-3|--3---3---3-3-3-0--|----0-0-0---0-0-5-5|
|--3---3---3-3-3-2--|----2-2-2---2-2----|-------------------|----------------3-3|

|--3---3---3-3-3-2--|----2-2-2---2-2-0-0|--0---0---0-0-0-0--|----0-0-0---0-0-3-3|
|--3---3---3-3-3-3--|----3-3-3---3-3-1-1|--1---1---1-1-1-1--|----1-1-1---1-1-3-3|
|--4---4---4-4-4-4--|----4-4-4---4-4-2-2|--0---0---0-0-0-2--|----2-2-2---2-2-4-4|
|--5---5---5-5-5-4--|----4-4-4---4-4-0-0|--2---2---2-2-2-2--|----2-2-2---2-2-5-5|
|--5---5---5-5-5-2--|----2-2-2---2-2-3-3|--3---3---3-3-3-0--|----0-0-0---0-0-5-5|
|--3---3---3-3-3-2--|----2-2-2---2-2----|-------------------|----------------3-3|

|--0---0----0-0-0-0-|--0---0----0-0-----|
|--0---0----0-0-0-0-|--0---0----0-0--1-1|
|--0---0----0-0-0-0-|--0---0----0-0--0-0|
|--2---2----2-2-2-2-|--2---2----2-2--2-2|
|--2---2----2-2-2-2-|--2---2----2-2--3-3|
|--0---0----0-0-0-0-|--0---0----0-0-----|

Post Chorus (1:17 - 1:29)

|-------------------|-------------------|-------------------|-------------------|
|--1---1---1-1-1-0--|----0-0-0-0-0-0-1-1|--1---1---1-1-1-0--|----0-0-0-0-0-0-1-1|
|--0---0---0-0-0-2--|----2-2-4-4-0-0-2-2|--0---0---0-0-0-2--|----2-2-4-4-0-0-2-2|
|--2---2---2-2-2-2--|----2-2-2-2-2-2-0-0|--2---2---2-2-2-2--|----2-2-2-2-2-2-0-0|
|--3---3---3-3-3-0--|----0-0-0-0-0-0-3-3|--3---3---3-3-3-0--|----0-0-0-0-0-0-3-3|
|-------------------|-------------------|-------------------|-------------------|

|-------------------|-------------------|-------------------|-------------------|
|--1---1---1-1-1-0--|----0-0-0-0-0-0-1-1|--1---1---1-1-1-0--|----0-0-0-0-0-0-1-1|
|--0---0---0-0-0-2--|----2-2-4-4-0-0-2-2|--0---0---0-0-0-2--|----2-2-4-4-0-0-2-2|
|--2---2---2-2-2-2--|----2-2-2-2-2-2-0-0|--2---2---2-2-2-2--|----2-2-2-2-2-2-0-0|
|--3---3---3-3-3-0--|----0-0-0-0-0-0-3-3|--3---3---3-3-3-0--|----0-0-0-0-0-0-3-3|
|-------------------|-------------------|-------------------|-------------------|

Verse 2 (1:29 - 1:54)
 
|-------------------|-------------------|-------------------|-------------------|
|--1-1-1-1-1-1-1-1--|----1-1-1---1-1-1--|--1-1-1-1-1-1-1-1--|----1-1-1---1-1-1--|
|--0-0-0-0-0-0-0-2--|----2-2-2---2-2-2--|--0-0-0-0-0-0-0-2--|----2-2-2---2-2-2--|
|--2-2-2-2-2-2-2-2--|----2-2-2---2-2-2--|--2-2-2-2-2-2-2-2--|----2-2-2---2-2-2--|
|--3-3-3-3-3-3-3-0--|----0-0-0---0-0-0--|--3-3-3-3-3-3-3-0--|----0-0-0---0-0-0--|
|--#---#---#---#----|--#---#---#---#----|--#---#---#---#----|--#---#---#---#----|

|-------------------|-------------------|-------------------|-------------------|
|--1-1-1-1-1-1-1-1--|----1-1-1---1-1-1--|--1-1-1-1-1-1-1-1--|----1-1-1---1-1-1--|
|--0-0-0-0-0-0-0-2--|----2-2-2---2-2-2--|--0-0-0-0-0-0-0-2--|----2-2-2---2-2-2--|
|--2-2-2-2-2-2-2-2--|----2-2-2---2-2-2--|--2-2-2-2-2-2-2-2--|----2-2-2---2-2-2--|
|--3-3-3-3-3-3-3-0--|----0-0-0---0-0-0--|--3-3-3-3-3-3-3-0--|----0-0-0---0-0-0--|
|--#---#---#---#----|--#---#---#---#----|--#---#---#---#----|--#---#---#---#----|

Chorus (1:54 - 2:22)

|--3---3---3-3-3-2--|----2-2-2---2-2-0-0|--0---0---0-0-0-0--|----0-0-0---0-0-3-3|
|--3---3---3-3-3-3--|----3-3-3---3-3-1-1|--1---1---1-1-1-1--|----1-1-1---1-1-3-3|
|--4---4---4-4-4-4--|----4-4-4---4-4-2-2|--0---0---0-0-0-2--|----2-2-2---2-2-4-4|
|--5---5---5-5-5-4--|----4-4-4---4-4-0-0|--2---2---2-2-2-2--|----2-2-2---2-2-5-5|
|--5---5---5-5-5-2--|----2-2-2---2-2-3-3|--3---3---3-3-3-0--|----0-0-0---0-0-5-5|
|--3---3---3-3-3-2--|----2-2-2---2-2----|-------------------|----------------3-3|

|--3---3---3-3-3-2--|----2-2-2---2-2-0-0|--0---0---0-0-0-0--|----0-0-0---0-0-3-3|
|--3---3---3-3-3-3--|----3-3-3---3-3-1-1|--1---1---1-1-1-1--|----1-1-1---1-1-3-3|
|--4---4---4-4-4-4--|----4-4-4---4-4-2-2|--0---0---0-0-0-2--|----2-2-2---2-2-4-4|
|--5---5---5-5-5-4--|----4-4-4---4-4-0-0|--2---2---2-2-2-2--|----2-2-2---2-2-5-5|
|--5---5---5-5-5-2--|----2-2-2---2-2-3-3|--3---3---3-3-3-0--|----0-0-0---0-0-5-5|
|--3---3---3-3-3-2--|----2-2-2---2-2----|-------------------|----------------3-3|

|--3---3---3-3-3-2--|----2-2-2---2-2-0-0|--0---0---0-0-0-0--|----0-0-0---0-0-3-3|
|--3---3---3-3-3-3--|----3-3-3---3-3-1-1|--1---1---1-1-1-1--|----1-1-1---1-1-3-3|
|--4---4---4-4-4-4--|----4-4-4---4-4-2-2|--0---0---0-0-0-2--|----2-2-2---2-2-4-4|
|--5---5---5-5-5-4--|----4-4-4---4-4-0-0|--2---2---2-2-2-2--|----2-2-2---2-2-5-5|
|--5---5---5-5-5-2--|----2-2-2---2-2-3-3|--3---3---3-3-3-0--|----0-0-0---0-0-5-5|
|--3---3---3-3-3-2--|----2-2-2---2-2----|-------------------|----------------3-3|

|--3---3---3-3-3-2--|----2-2-2---2-2-0-0|--0---0---0-0-0-0--|----0-0-0---0-0-3-3|
|--3---3---3-3-3-3--|----3-3-3---3-3-1-1|--1---1---1-1-1-1--|----1-1-1---1-1-3-3|
|--4---4---4-4-4-4--|----4-4-4---4-4-2-2|--0---0---0-0-0-2--|----2-2-2---2-2-4-4|
|--5---5---5-5-5-4--|----4-4-4---4-4-0-0|--2---2---2-2-2-2--|----2-2-2---2-2-5-5|
|--5---5---5-5-5-2--|----2-2-2---2-2-3-3|--3---3---3-3-3-0--|----0-0-0---0-0-5-5|
|--3---3---3-3-3-2--|----2-2-2---2-2----|-------------------|----------------3-3|

|--0---0----0-0-0-0-|--0---0----0-0-0-0-|
|--0---0----0-0-0-0-|--0---0----0-0-0-0-|
|--0---0----0-0-0-0-|--0---0----0-0-0-0-|
|--2---2----2-2-2-2-|--2---2----2-2-2-2-|
|--2---2----2-2-2-2-|--2---2----2-2-2-2-|
|--0---0----0-0-0-0-|--0---0----0-0-0-0-|

Post Chorus (2:22 - 2:38)

|--0---0----0-0-0-0-|--0---0----0-0-0-0-|--0---0----0-0-0-0-|--0---0----0-0-0-0-|
|--0---0----0-0-0-0-|--0---0----0-0-0-0-|--0---0----0-0-0-0-|--0---0----0-0-0-0-|
|--0---0----0-0-0-0-|--0---0----0-0-0-0-|--0---0----0-0-0-0-|--0---0----0-0-0-0-|
|--2---2----2-2-2-2-|--2---2----2-2-2-2-|--2---2----2-2-2-2-|--2---2----2-2-2-2-|
|--2---2----2-2-2-2-|--2---2----2-2-2-2-|--2---2----2-2-2-2-|--2---2----2-2-2-2-|
|--0---0----0-0-0-0-|--0---0----0-0-0-0-|--0---0----0-0-0-0-|--0---0----0-0-0-0-|

|--0---0----0-0-0-0-|--0---0----0-0-0-0-|--0---0----0-0-0-0-|--0---0----0-0-0-0-|
|--0---0----0-0-0-0-|--0---0----0-0-0-0-|--0---0----0-0-0-0-|--0---0----0-0-0-0-|
|--0---0----0-0-0-0-|--0---0----0-0-0-0-|--0---0----0-0-0-0-|--0---0----0-0-0-0-|
|--2---2----2-2-2-2-|--2---2----2-2-2-2-|--2---2----2-2-2-2-|--2---2----2-2-2-2-|
|--2---2----2-2-2-2-|--2---2----2-2-2-2-|--2---2----2-2-2-2-|--2---2----2-2-2-2-|
|--0---0----0-0-0-0-|--0---0----0-0-0-0-|--0---0----0-0-0-0-|--0---0----0-0-0-0-|

|--0----------------|-------------------|
|--0----------------|-------------------|
|--0----------------|-------------------|
|--2----------------|-------------------|
|--2----------------|-------------------|
|--0----------------|-------------------|

Bridge (2:38 - 3:40) *[read at bottom]
 

|-------------------|-------------------|-------------------|-------------------|
|--1---1---1-1-1-0--|----0-0-0---0-0-3-3|--3---3---3-3-3-5--|----5-5-5---5-5-1-1|
|--0---0---0-0-0-2--|----2-2-2---0-0-4-4|--4---4---4-4-4-5--|----5-5-5---5-5-2-2|
|--2---2---2-2-2-2--|----2-2-2---2-2-5-5|--5---5---5-5-5-7--|----7-7-7---7-7-0-0|
|--3---3---3-3-3-0--|----0-0-0---0-0-5-5|--5---5---5-5-5-7--|----7-7-7---7-7-3-3|
|-------------------|----------------3-3|--3---3---3-3-3-5--|----5-5-5---5-5----|

|-------------------|-------------------|-------------------|-------------------|
|--1---1---1-1-1-0--|----0-0-0---0-0-3-3|--3---3---3-3-3-5--|----5-5-5---5-5-1-1|
|--0---0---0-0-0-2--|----2-2-2---0-0-4-4|--4---4---4-4-4-5--|----5-5-5---5-5-2-2|
|--2---2---2-2-2-2--|----2-2-2---2-2-5-5|--5---5---5-5-5-7--|----7-7-7---7-7-0-0|
|--3---3---3-3-3-0--|----0-0-0---0-0-5-5|--5---5---5-5-5-7--|----7-7-7---7-7-3-3|
|-------------------|----------------3-3|--3---3---3-3-3-5--|----5-5-5---5-5----|

|-------------------|-------------------|-------------------|-------------------|
|--1---1---1-1-1-0--|----0-0-0---0-0-3-3|--3---3---3-3-3-5--|----5-5-5---5-5-1-1|
|--0---0---0-0-0-2--|----2-2-2---0-0-4-4|--4---4---4-4-4-5--|----5-5-5---5-5-2-2|
|--2---2---2-2-2-2--|----2-2-2---2-2-5-5|--5---5---5-5-5-7--|----7-7-7---7-7-0-0|
|--3---3---3-3-3-0--|----0-0-0---0-0-5-5|--5---5---5-5-5-7--|----7-7-7---7-7-3-3|
|-------------------|----------------3-3|--3---3---3-3-3-5--|----5-5-5---5-5----|

|-------------------|-------------------|-------------------|-------------------|
|--1---1---1-1-1-0--|----0-0-0---0-0-3-3|--3---3---3-3-3-5--|----5-5-5---5-5-1-1|
|--0---0---0-0-0-2--|----2-2-2---0-0-4-4|--4---4---4-4-4-5--|----5-5-5---5-5-2-2|
|--2---2---2-2-2-2--|----2-2-2---2-2-5-5|--5---5---5-5-5-7--|----7-7-7---7-7-0-0|
|--3---3---3-3-3-0--|----0-0-0---0-0-5-5|--5---5---5-5-5-7--|----7-7-7---7-7-3-3|
|-------------------|----------------3-3|--3---3---3-3-3-5--|----5-5-5---5-5----|

|-------------------|-------------------|-------------------|-------------------|
|-12--11---------12-|----11-------------|-12--11---------12-|----11-------------|
|--------11-11-11---|--------11--11--11-|--------11-11-11---|--------11--11--11-|
|-------------------|-------------------|-------------------|-------------------|
|-------------------|-------------------|-------------------|-------------------|
|-------------------|-------------------|-------------------|-------------------|

|-------------------|-------------------|-------------------|-------------------|
|-12--11---------12-|----11-------------|-12--11---------12-|----11-------------|
|--------11-11-11---|--------11--11--11-|--------11-11-11---|--------11--11--11-|
|-------------------|-------------------|-------------------|-------------------|
|-------------------|-------------------|-------------------|-------------------|
|-------------------|-------------------|-------------------|-------------------|

|-------------------|-------------------|-------------------|-------------------|
|-12--11---------12-|----11-------------|-12--11---------12-|----11-------------|
|--------11-11-11---|--------11--11--11-|--------11-11-11---|--------11--11--11-|
|-------------------|-------------------|-------------------|-------------------|
|-------------------|-------------------|-------------------|-------------------|
|-------------------|-------------------|-------------------|-------------------|

|-------------------|-------------------|-------------------|-------------------|
|-12--11---------12-|----11-------------|-12--11---------12-|----11-------------|
|--------11-11-11---|--------11--11--11-|--------11-11-11---|--------11--11--11-|
|-------------------|-------------------|-------------------|-------------------|
|-------------------|-------------------|-------------------|-------------------|
|-------------------|-------------------|-------------------|-------------------|

Outro (3:40 - 3:59)

|--0-------------3--|--------3-2---2----|--0-------------3--|--------3-2---2----|
|--1-----0---0---3--|--------3-3---3----|--1-----0---0---3--|--------3-3---3----|
|--0-----0---0---4--|--------4-4---4----|--0-----0---0---4--|--------4-4---4----|
|--2-----0---0---5--|--------5-4---4----|--2-----0---0---5--|--------5-4---4----|
|--3-----2---2---5--|--------5-2---2----|--3-----2---2---5--|--------5-2---2----|
|--------3---3---3--|--------3-2---2----|--------3---3---3--|--------3-2---2----|

|--0-------------3--|--------3-2---2----|--0-------------3--|--------3-2---2----|
|--1-----0---0---3--|--------3-3---3----|--1-----0---0---3--|--------3-3---3----|
|--0-----0---0---4--|--------4-4---4----|--0-----0---0---4--|--------4-4---4----|
|--2-----0---0---5--|--------5-4---4----|--2-----0---0---5--|--------5-4---4----|
|--3-----2---2---5--|--------5-2---2----|--3-----2---2---5--|--------5-2---2----|
|--------3---3---3--|--------3-2---2----|--------3---3---3--|--------3-2---2----|

|--0----------------|-------------------|-------------------|------------------||
|--1----------------|-------------------|-------------------|------------------||
|--0----------------|-------------------|-------------------|------------------||
|--2----------------|-------------------|-------------------|------------------||
|--3----------------|-------------------|-------------------|------------------||
|-------------------|-------------------|-------------------|------------------||

*End of bridge line for Rhythm could also be played on Lead with the lead line
 looped and Rhythm continuing to play chords

  Lyrics

Making my way across park to the other side
As the light begins to fade
They start the car and wait for the other two
And these were the words that she said to me

"How can you fall asleep boy
We haven't got the time
I need you more than you realise
I need you all the time"

Oohh what do you want from me (I, I)
How do you know me (I don't)
Alive
Tonight what do you want from me (I, I)
How do you know me (I don't)
Tonight

Biting my tongue to keep in line til i get inside
Her room, her heart, her mind
You've got to be yourself and realise
And whisper the words that she said to you

"How can you fall asleep boy
We haven't got the time
I need you more than you realise
I need you all the time"

Oohh what do you want from me (I, I)
How do you know me (I don't)
Alive
Tonight what do you want from me (I, I)
How do you know me (I don't)
Tonight

She said "Are you lonely and are you wanting?"
And so I'm finding it hard
I'm finding it hard to be this close to you
I'm finding it hard
I'm finding it hard to do what's right for you
And as I walk home
As I walk home I know I'm in love with you
Hoping for more
If you open that door then I'll be lost to you
Tonight
Comments