Glass Jaw - Star Above My Bed Chords & Tabs

 

Star Above My Bed Chords & Tabs

Glass Jaw Chords & Tabs

Version: 1 Type: Tab 0 ratings
1 star 2 stars 3 stars 4 stars 5 stars
comments

Star Above My Bed Tab

Artist - GlassJAw
Song   - Star Above My Bed
Album  - Kiss Kiss Bang Bang
Tuning - DADGBE
Tabbed by David Diuguid (aka bmskate/DEFreak13)
Date: 12/14/01

pm... = palm mute
^#    = bend (to note of #)
r#    = release bend (to note of #)
s     = slide
/\    = hammer on/off
   = harmonic
(#)   = don't pick the note; slide down/up to that # or start at that # (relative, not approximate)


Intro - Both Guitars [distortion] (0:00)
"kneeling on my pillow god..."
|-----------------------------------------------|---|
|-----------------------------------------------|---|
|-7--7-7-7-7-7-7-7-7-7-7--7-7-7-7-7--7-7-7-7-7--|-7-|
|-7--7-7-7-7-7-6-6-6-6-8--8-8-8-8-8--8-8-8-8-10-|-8-|
|-----------------------------------------------|---|
|-----------------------------------------------|---|


Fill [distortion] (0:28)
pm........
|-----------|
|-----------|
|-----------|
|-0-0-0-0-0-|
|-0-0-0-0-0-|
|-0-0-0-0-0-|


Chorus - Both Guitars [distortion] (0:29) (1:18) (2:56)
"i will see there, i will be there, it's you and me, we die..."
|---------------------|
|---------------------|
|---------------------|
|-0-0-0-4-0-3-3-0-3-5-|
|-0-0-0-2-0-1-1-0-3-5-|
|-0-0-0---0-----0-3-5-|


Interlude - Guitar 1 [light distortion] (0:46) (1:00) (2:10) (2:24)
|-------|
|-------|
|-6---7-| tremolo pick 
|-0---0-| really fast  
|-4---5-| 
|-------|


Interlude - Guitar 2 [light distortion] (0:46) (1:00) (2:10) (2:24)
pm.......    ......
|-------------------------|
|-------------------------|
|-------------------------|
|---------4-4---------4-4-|
|-0-0-4-0-----0-0-4-4-----|
|-------------------------|


Bridge - Both Guitars [distortion] (0:56) (1:09) (2:19) (2:33)
"why can't i glow, glow, glow, glow..."
		    pm......    .........
|-----------|-----------|-------------|---|
|-----------|-----------|-------------|---| at 2:47-2:54 guitar 1 just 
|-----------|-----------|-------------|---| plays the 1 power chord as 
|-1---3-2-0-|-1---3-2-0-|-1-0-0-0-0-0-|-1-| guitar 2 plays 1 32 (w/320pm)
|-1---3-2-0-|-1---3-2-0-|-1-0-0-0-0-0-|-1-|
|-1---3-2-0-|-1---3-2-0-|-1-0-0-0-0-0-|-1-|

[ Tab from: http://www.guitartabs.cc/tabs/g/glass_jaw/star_above_my_bed_tab.html ]
Bridge #2 - Guitar 1 [light distortion]
|-------------------------------------------------|
|-------------------------------------------------|
|-7-7-7-7-7-7-7-7-7-7-7-7-7-7-7-7-7-7-7-7-7-7-7-7-|
|-0-0-0-0-0-0-0-0-0-0-0-0-0-0-0-0-0-0-0-0-0-0-0-0-|
|-5-5-5-5-5-5-5-5-5-5-5-5-5-5-5-5-5-5-5-5-5-5-5-5-|
|-------------------------------------------------|


Bridge #2 - Guitar 2 [distortion]
pm...........     ...........   .
|-----------------------------|---|
|-----------------------------|---|
|-----------------------------|---|
|-6-6-6-6-6-6-----6-6-6-6-6-6-|-0-|
|-6-6-6-6-6-6-----6-6-6-6-6-6-|-0-|
|-6-6-6-6-6-6-----6-6-6-6-6-6-|-0-|


Interlude #2 - Both Guitars [distortion] (2:04)
"i see the ***en manger, on her desk she left a warning..."
pm...............................................................
|-----------------------------------------------------------------|
|-----------------------------------------------------------------|
|-----------------------------------------------------------------|
|-0-0-0-0-0-0-0-0-0-0-0-0-0-0-0-0-8-8-8-8-8-8-7-7-7-5-5-5-3-3-2-2-|
|-0-0-0-0-0-0-0-0-0-0-0-0-0-0-0-0-8-8-8-8-8-8-7-7-7-5-5-5-3-3-2-2-|
|-0-0-0-0-0-0-0-0-0-0-0-0-0-0-0-0-8-8-8-8-8-8-7-7-7-5-5-5-3-3-2-2-|


Interlude #2 - Guitar 2 [distortion] (2:04)
(plays above riff 3x then this) 
pm.......   .......             .................................
|-----------------------------------------------------------------|
|-----------------------------------------------------------------|
|---------7---------7-7-7-7-7-7-8-8-8-8-8-8-8-7-7-7-5-5-5-3-3-2-2-|
|-0-0-0-0-x-0-0-0-0-x-x-x-x-x-x-8-8-8-8-8-8-8-7-7-7-5-5-5-3-3-2-2-|
|-0-0-0-0-5-0-0-0-0-5-5-5-5-5-5-8-8-8-8-8-8-8-7-7-7-5-5-5-3-3-2-2-|
|-0-0-0-0---0-0-0-0-------------8-8-8-8-8-8-8-7-7-7-5-5-5-3-3-2-2-|


comments: 	*one of my all time fav glassJAw songs 
		*there's 3 studio versions out of this song
		*on kiss kiss bang bang, which was released twice ('97 & 01)
		*i tabbed this from version that is 3:39 (i dunno which year)

If you have any questions or comments, contact me via e-mail bmskate@hotmail.com or on Instant Messenger As DEFreak13
Comments