Glass Jaw - Siberian Kiss Chords & Tabs

 

Siberian Kiss Chords & Tabs

Glass Jaw Chords & Tabs

Version: 3 Type: Tab 0 ratings
1 star 2 stars 3 stars 4 stars 5 stars
comments

Siberian Kiss Tab

Artist - GlassJAw
Song   - Siberian Kiss
Album  - Everything You Ever Wanted To Know About Silence
Tuning - DADGBE
Tabbed by David Diuguid (aka bmskate/DEFreak13)

pm... = palm mute
s     = slide
/\    = hammer on/off
    = harmonic


Intro [distortion/compression]
(the video fades in on that  harmonic / the cd doesn't)
|------------------------|
|------------------------|
|------------------------|
|------3--2--0-1-1-1-0-1-|
|---3--2--0-1-1-1-0-1-|
|------3--2--0-1-1-1-0-1-|


Verse [distortion/compression]
|-----------------------------------------------------------------|
|-----------------------------------------------------------------|
|-----------------------------------------------------------------|
|-1-1-1-0-0-0-1-1-1-0-0-0-1-1-1-0-0-0-1-1-1-0-0-0-3/2-0-4/3-0-6/5-|
|-1-1-1-0-0-0-1-1-1-0-0-0-1-1-1-0-0-0-1-1-1-0-0-0-1/0-0-4/3-0-6/5-|
|-1-1-1-0-0-0-1-1-1-0-0-0-1-1-1-0-0-0-1-1-1-0-0-0-----0-4/3-0-6/5-|

pm.....
|-----------------------------------------------------------------|
|-----------------------------------------------------------------|
|-----------------------------------------------------------------|
|-1-1-1-0-0-0-1-1-1-0-0-0-1-1-1-0-0-0-1-1-1-0-0-0-2-2-2-2-3-3-3-3-|
|-1-1-1-0-0-0-1-1-1-0-0-0-1-1-1-0-0-0-1-1-1-0-0-0-2-2-2-2-3-3-3-3-|
|-1-1-1-0-0-0-1-1-1-0-0-0-1-1-1-0-0-0-1-1-1-0-0-0-2-2-2-2-3-3-3-3-|


Fill-In [distortion/compression]
|----------|
|----------|
|----------|
|-0-2--0-3-|
|-0-2--0-3-|
|-0-2--0-3-|


Pre-Chorus 1 (light palm mute) [chorus/distortion/delay on 2nd guitar]
|-------------8-------------------8-------------|
|-12----12------12----12----12------12----12----|
|----11----11------11----11----11------11----11-|
|-----------------------------------------------|
|-----------------------------------------------|
|-----------------------------------------------|

[ Tab from: http://www.guitartabs.cc/tabs/g/glass_jaw/siberian_kiss_tab_ver_3.html ]
Pre-Chorus 2 (let ring throughout) [distortion/chorus]
|--------------0-----------0-----5-0-|
|--------0-------0-------------------|
|------------0-----------------0-----|
|-0----2-----------------4-----------|
|-0--3-----3---------3s5-----5-------|
|-0----------------------------------|


Chorus [distortion/chorus/compression]
|----0--------------0-----------------------|
|----0--------------0--------------5--0-3---|
|----0--------------0------------0----------|
|-2--2--0-2-2--0--2-2--0-2-2-5------------0-|
|-2--2--0-2-2--0--2-2--0-2-2-5-3----------0-|
|-2--2--0-2-2--0--2-2--0-2-2-5------------0-|


Solo Over Chorus (all on high e string) [distortion/chorus]
|-7-7-7-7-7-7-7-7-7-7-7-7-7-7-7-7-10-10-10-10-7-7-|

|-7-7-10-10-10-10-7-7-7-7-10-10-12-12-12s10-10-10-|

|-10s8-8-8-8s7-7-7-7s12-12-12-12s10-10-10-10s8-8-8-8-|


Fill-In [distortion/compression]
|----------|
|----------|
|----------|
|-0-3--0-2-|
|-0-3--0-2-|
|-0-3--0-2-|


Interlude (HxC!!!) [distortion/compression]
    pm...
|-------------------|
|---------4-4-4-4-4-|
|---------2-2-2-2-2-|
|-2/1-1-1-1-1-1-1-1-|
|-2/1-1-1-1-1-1-1-1-|
|-2/1-1-1-1-1-1-1-1-|


Fill-In [distortion/compression]
|----------|
|----------|
|----------|
|-0-2--0-3-|
|-0-2--0-3-|
|-0-2--0-3-|


Outro [distortion/compression]
pm..........................................................
|------------------------------------------------------------|-----|
|------------------------------------------------------------|-----|
|------------------------------------------------------------|-----|
|-2-2--0-2-2--0-2-2--0-2-3-2-0-2-2--0-2-2--0-2-2--0-22330000-|-----|
|-2-2--0-2-2--0-2-2--0-2-3-2-0-2-2--0-2-2--0-2-2--0-22330000-|--|
|-2-2--0-2-2--0-2-2--0-2-3-2-0-2-2--0-2-2--0-2-2--0-22330000-|-----|


Any questions or comments e-mail me at bmskate@hotmail.com or on Instant Messenger As DEFreak13

Comments