Glass Jaw - Pretty Lush Chords & Tabs

 

Pretty Lush Chords & Tabs

Glass Jaw Chords & Tabs

Version: 1 Type: Tab 0 ratings
1 star 2 stars 3 stars 4 stars 5 stars
comments

Pretty Lush Tab

Artist - GlassJAw
Song   - Pretty Lush
Album  - Everything You Ever Wanted To Know About Silence
Tuning - DADGBE
Tabbed by David Diuguid (aka bmskate/DEFreak13)


pm... = palm mute
s     = slide
/\    = hammer on/off
    = harmonic


Intro [distortion]
|--------------|
|--------------|
|--------------|
|-0-2--3--5--6-|
|-0-2--3--5--6-|
|-0-2--3--5--6-|


Verse [distortion/compression]
|--------------|--------------|
|--------------|--------------|
|-8-8-8--8-8-8-|--------------|
|-0-0-0--0-0-0-|-0-0-0--0-0-0-|
|-0-0-0--0-0-0-|-0-0-0--0-0-0-|
|-0-0-0--0-0-0-|-0-0-0--0-0-0-|


Pre-Chorus [distortion/chorus/tremolo]
|-3------------------|---------------------------------------------------|
|-3------------------|-4-4-4-4-4-4-4-4-6-6-6-6-6-6-6-6-8-8-8-8-8-8-8-8-8-|
|-0------------------|---------------------------------------------------|
|-5---------0------0-|---------------------------------------------------|
|-5-------1------1---|---------------------------------------------------|
|-------1------1-----|---------------------------------------------------|

[ Tab from: http://www.guitartabs.cc/tabs/g/glass_jaw/pretty_lush_tab.html ]
Chorus [distortion]
|---------------------------------3-3-3-3-3-3-3-3-3-3-3-3-3-3-3-3-|-----|
|-8-8-8-8-8-8-8-8-8-8-8-8-8-8-8-8-3-3-3-3-3-3-3-3-3-3-3-3-3-3-3-3-|-----|
|-7-7-7-7-7-7-7-7-7-7-7-7-7-7-7-7-3-3-3-3-3-3-3-3-3-3-3-3-3-3-3-3-|-----|
|-5-5-5-5-5-5-5-5-5-5-5-5-5-5-5-5-1-1-1-1-1-1-1-1-1-1-1-1-1-1-1-1-|-0-3-|
|-5-5-5-5-5-5-5-5-5-5-5-5-5-5-5-5-1-1-1-1-1-1-1-1-1-1-1-1-1-1-1-1-|-0-3-|
|-5-5-5-5-5-5-5-5-5-5-5-5-5-5-5-5-1-1-1-1-1-1-1-1-1-1-1-1-1-1-1-1-|-0-3-|


2nd Guitar Over Chorus [distortion/chorus/tremolo]
|-----5-------|
|---8---8---8-|
|-7-------7---|
|-------------|
|-------------|
|-------------|


Fill [distortion/compression]
|--------------------|
|--------------------|
|--------------------|
|-0-2--3--5--6-0-2-2-|
|-0-2--3--5--6-0-2-2-|
|-0-2--3--5--6-0-2-2-|


Fill [distortion/compression]
|-----------------|
|-----------------|
|-----------------|
|-0-2-3-------0-2-|
|-0-2-3-------0-2-|
|-0-2-3-------0-2-|


Interlude [distortion/compression]
|---------------------------|
|---------------------------|
|---------------------------|
|-0-2--3--5--6-0-2--3--6--5-|
|-0-2--3--5--6-0-2--3--6--5-|
|-0-2--3--5--6-0-2--3--6--5-|


2nd Guitar Over Interlude [distortion/compression]
|------------------|
|------------------|
|------------------|
|-0-2--------0-2-3-|
|-0-2--------0-2-3-|
|-0-2--------0-2-3-|


Fill [distortion/compression]
|-------|
|-------|
|-------|
|-0-2-3-|
|-0-2-3-|
|-0-2-3-|


Fade Out On This Note [distortion/compression]
|----|
|-11-|
|-14-|
|----|
|----|
|----|


Any questions or comments e-mail me at bmskate@hotmail.com or Instant Messenger as DEFreak13

Comments