Glass Jaw - Piano Chords & Tabs

 

Piano Chords & Tabs

Glass Jaw Chords & Tabs

Version: 1 Type: Tab 0 ratings
1 star 2 stars 3 stars 4 stars 5 stars
comments

Piano Tab

Artist - GlassJAw
Song   - Piano
Album  - Everything You Ever Wanted To Know About Silence
Tuning - DADGBE
Tabbed by David Diuguid (aka bmskate/DEFreak13)


pm... = palm mute
s     = slide
/\    = hammer on/off
   = harmonic
(#)   = don't pick the note; slide down/up to that # or start at that # (relative, not approximate)


Intro/Chorus - Guitar 2 [clean for intro/distortion for chorus]
|-------12-----12-----12-----12----------15-----15-----15-----15----|-------15----|
|----13-----13-----13-----13----13----13-----13-----13-----13----13-|----13----13-|
|-10-------------------------------10-------------------------------|-10----------|
|-------------------------------------------------------------------|-------------|
|-------------------------------------------------------------------|-------------|
|-------------------------------------------------------------------|-------------|


Chorus - Guitar 1 [distortion]
|-----------------------------------------|---------------------------------|
|-----------------------------------------|---------------------------------|
|-----------------------------------------|---------------------------------|
|-0-0-0-0-10-10-10-10-0-0-0-0-10-10-10-10-|-10-10-10-10-0-0-0-0-10-10-10-10-|
|-0-0-0-0-10-10-10-10-0-0-0-0-10-10-10-10-|-10-10-10-10-0-0-0-0-10-10-10-10-|
|-0-0-0-0-10-10-10-10-0-0-0-0-10-10-10-10-|-10-10-10-10-0-0-0-0-10-10-10-10-|

|---------------------------------|
|---------------------------------|
|-5-5-5-5-5-5-5-5-5-5-5-5-5-5-5-5-|
|-7-7-7-7-7-7-7-7-7-7-7-7-7-7-7-7-|
|-8-8-8-8-8-8-8-8-8-8-8-8-8-8-8-8-|
|-8-8-8-8-8-8-8-8-8-8-8-8-8-8-8-8-|


Verse - Guitar 1 [distortion] (in 2nd verse, guitar 2 does this clean near the end)
|-----------------------------------------------------------------|---------|
|-----------------------------------------------------------------|---------|
|-----------------------------------------------------------------|---------|
|-4-4-4-4-4-4-4-4-0-0-0-0-0-0-0-0-2-2-2-2-2-2-2-2-0-0-0-0-0-0-0-0-|-7-7-7-7-|
|-4-4-4-4-4-4-4-4-0-0-0-0-0-0-0-0-2-2-2-2-2-2-2-2-0-0-0-0-0-0-0-0-|-5-5-5-5-|
|-4-4-4-4-4-4-4-4-0-0-0-0-0-0-0-0-2-2-2-2-2-2-2-2-0-0-0-0-0-0-0-0-|-5-5-5-5-|


Verse - Guitar 2  [distortion/solo is clean with tremolo]
|-----|------------------------0------7----|
|-----|-5\4------------------0----4/5------|
|-6-6-|-----4--------4s6-----------------4-|
|-6-6-|-------6-----------4----------------|
|-4-4-|------------------------------------|
|-4-4-|------------------------------------|
[ Tab from: http://www.guitartabs.cc/tabs/g/glass_jaw/piano_tab.html ]
Verse - Guitar 2 [clean] (distorted on the 1-1)
|----------------------------------------------------------|
|----------------------------------------------------------|
|----------------------------------------------------------|
|-4-4-4-4-4-4-4-440-0-0-0-0-0-0-002-2-2-2-2-2-222-0----1-1-|
|-4-4-4-4-4-4-4-440-0-0-0-0-0-0-002-2-2-2-2-2-222-0----1-1-|
|-4-4-4-4-4-4-4-440-0-0-0-0-0-0-002-2-2-2-2-2-222-0----1-1-|

Interlude - Both Guitars [light distortion]
pm...........................       .........................   ...
|-------------------------------------------------------------7-----|
|-------------------------------------------------------------------|
|-4-4-4-4-4-4-8-8-9-9-9-9-9-9-8/9\8-4-4-4-4-4-4-8-8-9-9-9-9-9---9-8-|
|-------------------------------------------------------------------|
|-------------------------------------------------------------------|
|-------------------------------------------------------------------|

pm...........................................................   .
|-------------------------------------------------------------7---7-|
|-7-----7-----7-----7-----7-----------------------------------------|
|---9-8---9-8---9-8---9-8---9-8/9\8-4-4-4-4-4-4-8-8-8-9-9-9-9---9---|
|-------------------------------------------------------------------|
|-------------------------------------------------------------------|
|-------------------------------------------------------------------|

|-----7-----7-----7-----7-----7-|
|-------------------------------|
|-8/9---8/9---8/9---8/9---8/9---|
|-------------------------------|
|-------------------------------|
|-------------------------------|


Outro - Both Guitars [distortion]
|-----------------------------------------------------------------|-------------|
|-----------------------------------------------------------------|-------------|
|-6-6-6-6-6-6-6-6-6-6-6-6-6-6-6-6-6-6-6-6-6-6-6-6-6-6-6-6-6-6-6-6-|-------------|
|-6-6-6-6-6-6-6-6-6-6-6-6-6-6-6-6-6-6-6-6-6-6-6-6-6-6-6-6-6-6-6-6-|-0-0-0-0-0-0-|
|-4-4-4-4-4-4-4-0-0-0-0-0-0-0-0-2-2-2-2-2-2-2-2-2-4-4-4-4-4-4-4-4-|-0-0-0-0-0-0-|
|-------------------------------------------------4-4-4-4-4-4-4-4-|-0-0-0-0-0-0-|


Solo Over Outro - Guitar 2 [distortion]
|-12\11---------------------------19----19----11/12\11-------12\11-------------14-12-|
|-------12------12s14-------16/17----17----17----------12----------12----12s14-------|
|----------13----------11---------------------------------11----------13-------------|
|------------------------------------------------------------------------------------|
|------------------------------------------------------------------------------------|
|------------------------------------------------------------------------------------|

|-14-11/12\11----------12-| strum that 9-12-12 chord
|-------------12-------12-| 169 times for endin
|-----------------11---9--|
|-------------------------|
|-------------------------|
|-------------------------|


If you have any questions or comments, contact me via e-mail bmskate@hotmail.com or on Instant Messenger As DEFreak13

Comments