Glass Jaw - Ape Dos Mil Chords & Tabs

 

Ape Dos Mil Chords & Tabs

Glass Jaw Chords & Tabs

Version: 1 Type: Tab 0 ratings
1 star 2 stars 3 stars 4 stars 5 stars
comments

Ape Dos Mil Tab

   
Glassjaw "Ape Dos Mil"
Tabbed By: Matthew K. Turner (mkt@ampwire.com)

The accuracy of this tab may not be super good, but its the best i could get out of the live version ive heard. so here goes something.

h: hammer-on
p: pull-off

Tuning: DADGBE

Verse
Chorus
Verse
Chorus x2
Bridge
Chorus x4

Guitar 1:  Verse 

E|-------------------|
B|-------------------|
G|-12-------12-------|
D|-------14-------14-|  repeated randomly through the verse.
A|-------------------|
D|-------------------|

Guitar 2: Verse
PM'd

E|-----------|
B|-----------|
G|-9-7-5-2---|
D|-7-5-3-4---|
A|-9-7-5-----|
D|-----------|


Guitar 2: Chorus Lead

E|-------------------------------------------------|
B|---------15------------------12h15p12------------|
G|----12-------12----12---12---------------12------|
D|-14----14-------14---14---14----------14---------|
A|--------------------------------------------(14)-|
D|-------------------------------------------------|

Guitar 1: Chorus
[ Tab from: http://www.guitartabs.cc/tabs/g/glass_jaw/ape_dos_mil_tab.html ]
E|-------------|         E|---|
B|-------------| end on  B|---|
G|---10-5-4----|         G|---|
D|-7-10-5-4-5--|         D|-3-|
A|-7-8--7-2-5--|         A|-3-|
D|-7------2-7--|         D|-1-|

Guitar 2: Bridge

E|-----------|                                                E|-----------|     
B|-----------|                                                B|-----------|  
G|-----------|  played all the way up where the vocals start  G|-----------|  in one version of the song, there is some weird
D|-7777-5555-|  after that its just                           D|-7~---5~---|  bass solo and guitar tremolo effect, i dont know
A|-9999-7555-|                                                A|-9~---7~---|  what the notes are because i figgered this was just
D|-----------|                                                D|-----------|  improv, the more recent version did not inculde the bass
                                                                              solo thinger and tremolo effect.

Guitar 1: Bridge Lead

E|---------------------------------------------|
B|-------15--------15--------------------------|
G|----12---12----12----------------------------|
D|-14----------14------------------------------|
A|---------------------------------------------|
D|---------------------------------------------|
Comments