Glasjaw - Pretty Lush Chords & Tabs

 

Pretty Lush Chords & Tabs

Glasjaw Chords & Tabs

Version: 1 Type: Tab 0 ratings
1 star 2 stars 3 stars 4 stars 5 stars
comments

Pretty Lush Tab

   
GlassJaw - Pretty Lush
email - bif_naked_kid@hotmail.com
website - kidkorn.com

DabgdE

Intro
e|-------------------|
b|-------------------|
g|-------------------|
d|-0-2---3---5---6---|
a|-0-2---3---5---6---|
D|-0-2---3---5---6---|


Verse riff 1
e|-----------------------------------------------------------------|
b|-----------------------------------------------------------------|
g|---8-8-8---8-8-8---8-8-8---8-8-8---8-8-8---8-8-8-----------------|
d|---0-0-0---0-0-0---0-0-0---0-0-0---0-0-0---0-0-0-0-2---3---5---6-|
a|---0-0-0---0-0-0---0-0-0---0-0-0---0-0-0---0-0-0-0-2---3---5---6-|
D|---0-0-0---0-0-0---0-0-0---0-0-0---0-0-0---0-0-0-0-2---3---5---6-|

Verse riff 2
e|-----------------------------------------------------------------|
b|-----------------------------------------------------------------|
g|-----------------------------------------------------------------|
d|-0-0-0---0-0-0---0-0-0---0-0-0---0-0-0---0-0-0---0-2---3---5---6-|
a|-0-0-0---0-0-0---0-0-0---0-0-0---0-0-0---0-0-0---0-2---3---5---6-|
D|-0-0-0---0-0-0---0-0-0---0-0-0---0-0-0---0-0-0---0-2---3---5---6-|
[ Tab from: http://www.guitartabs.cc/tabs/g/glasjaw/pretty_lush_tab.html ]
Verse riff 3
e|------------------------------------|
b|-8------8---------------6----6/8----|
g|-7------7---------------x----x------|
d|-5------5----------1----3----3/5----|
a|-5------5--------1---1--------------|
D|-5------5------1------1-------------|

Chorus
e|-----------------------------------------------------------------|
b|-7-7-7-7-7-7-7-7-7-7-7-7-7-7-7-7-4-4-4-4-4-4-4-4-4-4-4-4-4-4-4-4-|
g|-6-6-6-6-6-6-6-6-6-6-6-6-6-6-6-6-3-3-3-3-3-3-3-3-3-3-3-3-3-3-3-3-|
d|-4-4-4-4-4-4-4-4-4-4-4-4-4-4-4-4-1-1-1-1-1-1-1-1-1-1-1-1-1-1-1-1-|
a|-4-4-4-4-4-4-4-4-4-4-4-4-4-4-4-4-1-1-1-1-1-1-1-1-1-1-1-1-1-1-1-1-|
d|-4-4-4-4-4-4-4-4-4-4-4-4-4-4-4-4-1-1-1-1-1-1-1-1-1-1-1-1-1-1-1-1-|

Little lead in the chorus
e|-10------------------------11------------------------|
b|------11---10---11---10-11------11---10---11---10-11-|
g|-----------------------------------------------------|
d|-----------------------------------------------------|
a|-----------------------------------------------------|
D|-----------------------------------------------------|

Bridge
e|---------------------------|
b|---------------------------|
g|---------------------------|
d|-0-2---3---5---6-0-2-3-0-2-|
a|-0-2---3---5---6-0-2-3-0-2-|
D|-0-2---3---5---6-0-2-3-0-2-|
Comments