Glamour Of The Kill - Feeling Alive Chords & Tabs

 

Feeling Alive Chords & Tabs

Glamour Of The Kill Chords & Tabs

Version: 3 Type: Tab

Feeling Alive Tab

-------------------------------------------------------------------------------
			     Feeling Alive - Glamour of the Kill
-------------------------------------------------------------------------------
Tabbed by: Aclungemonkey
Email: aclungemonkey@hotmail.co.uk

Tuning: Drop C# (C#G#C#F#A#D#)

Intro pt.1

|---------------------------------|
|---------------------------------|
|---------------------------------|
|-----777-----555-----------------|  X3
|-000-555-333-333-55-33-----------|
|-000-----333-----55-33-----------|
  *** *** *** *** ** **
|---------------------------------|
|---------------------------------|
|---------------------------------|
|-----777-----555-----------------| 
|-000-555-333-333-5---------------|
|-000-----333-----5---------------|
  *** *** *** ***
  
Intro pt.2

|---------------------------------|
|-------------555-----------------|
|-----777-----555-----------------| 
|-000-777-333-333-55-33-----------| X3
|-000-555-333-----55-33-----------|
|-000-----333-----55-33-----------|

|---------------------------------|
|---------------------------------|
|-333333333--55555----------------|
|-333333333--55555----------------|
|-111111111--33333----------------|
|---------------------------------|

Intro Lead part

|---------------------------------------------------------------------------|
|---------------------------------------------------------------------------|
|--12b14-(14)(14)--12b14-(14)(14)--12b14-(14)(14)--12b14-(14)(14)-----------|
|---------------------------------------------------------------------------|
|---------------------------------------------------------------------------|
|---------------------------------------------------------------------------|

What i meant by the brackets is that you bend the 12 up till it sound like the 
14th fret on the same string then hit that not twice.

|---------------------------------------------------------------------------|
|-----------------------------------------10-13-----------------------------|
|--12-10----------10-12-10-12b14-10h12p10-------12b14b12--------------------|  
|--------12-10-12-----------------------------------------------------------|
|---------------------------------------------------------------------------|
|---------------------------------------------------------------------------|
Just mess around with the bending and you'll get it to sound right.

Verse

Guitar 1

|--------------------------------|
|--------------------------------|
|--------------------------------|
|--------------------------------|
|-0-0-0-0------------------------|
|-0-0-0-0------------------------|
  * * * *
  Guitar 2

|--------------------------------|
|--------------------------------|
|--------------------------------|
|--------------------------------|
|-----555-----333----------------|
|-000-----333-----55-33----------|
   *** *** *** *** ** **
Both


|---------------------------------|
|---------------------------------|
|-333333333--555555555------------|
|-333333333--555553333------------|
|-111111111--333333333------------|
|---------------------------------|

Chorus

|---------------------------------|
|---------------------------------|
|--7---------3----5---------------| 
|--7----3----3----5---------------| x3    
|-------3-------------------------|

|--------------------------------------|
|--------------------------------------|
|--7---------3----5--------------------| 
|--7----3----3----5--------------------| 
|--5----3----1----3--------------------|
|-------3-------------630-630-630-3630-|

Intro pt.2

|---------------------------------|
|-------------555-----------------|
|-----777-----555-----------------| 
|-000-777-333-333-55-33-----------| X3
|-000-555-333-----55-33-----------|
|-000-----333-----55-33-----------|

|---------------------------------|
|---------------------------------|
|-333333333--55555----------------|
|-333333333--55555----------------|
|-111111111--33333----------------|
|---------------------------------|

Lead part  (I'm not too sure about this as its hard to hear in the song)

|---------------------------------------------------------------------------|
|---------------------------------------------------------------------------|
|--12b14-(14)--12b14-(14)--12b14-(14)--12b14-(14)---12-10-------------------|
|---------------------------------------------------------12-10-------------|
|---------------------------------------------------------------------------|
|---------------------------------------------------------------------------|
[ Tab from: http://www.guitartabs.cc/tabs/g/glamour_of_the_kill/feeling_alive_tab_ver_3.html ]
|---------------------------------------------------------------------------|
|---------------------------------------------------------------------------|
|--------10-------10----10-------10----12b14-10-----------------------------|
|--10-12----10-12----10----10-12---12---------------------------------------|
|---------------------------------------------------------------------------|
|---------------------------------------------------------------------------|
   *  *     *  *     *     *  *    *

Verse 2

Guitar 1

|--------------------------------|
|--------------------------------|
|--------------------------------|
|--------------------------------|
|-0-0-0-0------------------------|
|-0-0-0-0------------------------|
  * * * *

Both 

|---------------------------------|
|---------------------------------|
|-333333333--555555555------------|
|-333333333--555553333------------|
|-111111111--333333333------------|
|---------------------------------|

Guitar 1

|--------------------------------|
|--------------------------------|
|--------------------------------|
|--------------------------------|
|-0-0-0-0------------------------|
|-0-0-0-0------------------------|
  * * * *
  
Guitar 2

|--------------------------------|
|--------------------------------|
|--------------------------------|
|--------------------------------|
|-----555-----333----------------|
|-000-----333-----55-33----------|
   *** *** *** *** ** **
   
Both 

|---------------------------------|
|---------------------------------|
|-333333333--555555555------------|
|-333333333--555553333------------|
|-111111111--333333333------------|
|---------------------------------|


CHORUS

Bridge

Both

|---------------------------------|
|---------------------------------|
|--77-5-7---33---5----------------|
|--77-5-7---33-3-5----------------| X2
|--55-3-5---11-3-3----------------|
|--------------3------------------|

Guitar 1

|---------------------------------|
|---------------------------------|
|--77-5-7---33---5----------------|
|--77-5-7---33-3-5----------------| X2
|--55-3-5---11-3-3----------------|
|--------------3------------------|

Guitar 2 (Solo) 

|--------------------13------13-12-10---------------------------------------|
|--13b-13b-13-10-13b---13b------------13-10---------------------------------|
|-------------------------------------------12-12b-10h12p10-----------------|
|-----------------------------------------------------------12--------------|
|---------------------------------------------------------------------------|
|---------------------------------------------------------------------------|

|-----15b-13-15-13---------------12-13-15-12-13-15-13-15-15b-17b~-----------|
|-15b-----------------------------------------------------------------------|
|---------------------------------------------------------------------------|
|--------------------/slide-------------------------------------------------|
|--------------------/slide-------------------------------------------------|
|--------------------/slide-------------------------------------------------|

Both
|---------------------------------|
|---------------------------------|
|--3-----5-----7------------------|
|--3-----5-----7------------------| 
|--1-----3-----5------------------|
|--------------0------------------|


|---------------------------------|
|-------------555-----------------|
|-----777-----555-----------------| 
|-000-777-333-333-55-33-----------| X3
|-000-555-333-----55-33-----------|
|-000-----333-----55-33-----------|

|---------------------------------|
|---------------------------------|
|---------------------------------|
|-------------0-------------------|
|-00-00-33-55-0-------------------|
|-00-00-33-55-0-------------------|
  ** ** ** ** 
  
CHORUS
|----------------------------------|
|----------------------------------|
|--7---------3----5----------------| 
|--7----3----3----5----------------| x3
|--5----3----1----3----------------|
|-------3--------------------------|

|--------------------------------------|
|--------------------------------------|
|--7-----------------------------------| 
|--7----3------------------------------| 
|--5----3------------------------------|
|-------3-------------630-630-60-------|

|--------------------------------------|
|--------------------------------------|
|--------------------------------------|
|--------------------------00--00------|
|--------------------------00--00------|
|--630-630-60---630-630-60-00--00------|
                           **  **
Outro
|--------------------------------------|
|--------------------------------------|  
|--------------------------------------|
|---------------00--00-----------------|  
|---------------00--00-----------------| 
|--630-630-60---00--00-----------------|						   
                **  **
				
End on-
Both
|---------------------------------|
|---------------------------------|
|--77-5-7-------------------------|
|--77-5-7-------------------------| 
|--55-3-5-------------------------|
|---------------------------------|


   
************************************
* - Palm mute
b - Bend
p - Pull off
h - Hammer on
(0) - Hit bended note


************************************