Girlschool - Tush Chords & Tabs

 

Tush Chords & Tabs

Girlschool Chords & Tabs

Version: 1 Type: Tab 0 ratings
1 star 2 stars 3 stars 4 stars 5 stars
comments

Tush Tab

   
#----------------------------------PLEASE NOTE---------------------------------#
#This file is the author's own work and represents their interpretation of the #
#song. You may only use this file for private study, scholarship, or research. #
#------------------------------------------------------------------------------##

-----------------------------------------------------------------------------
                              TUSH - Girlschool
-----------------------------------------------------------------------------

Written by: Gibbons/Hill/Beard
Album: "Screaming Blue Murder"  (1982, Solid Gold Records)

Tabbed by: Anne Drury  (zerofret)
Email: zerofret_ad@hotmail.com
Date: December 6, 2005

Notes:
-this tab is of Girlschool's 2nd recording of "Tush", the version with
 Kim McAuliffe on vocals -- the song appeared on "Screaming
 Blue Murder" in North America (but not in the UK)
-key of G - guitar solos are mostly in G pentatonic minor
-bar lines do indicate timing
-I'm not convinced I have the main guitar part for the verses tabbed
 entirely correctly - I checked against 3 different video versions of
 the song (the promo and 2 concert versions) and couldn't decide
 definitively if I had it right or not - not sure if those single notes
 at the beginning of each measure should be a single note or maybe (same
 as the rhythm guitar part), a 5th chord - use your own judgment :)


INTRO:

Play Guitar 1 and Guitar 2 parts together

Gtr 1 - play 2x
   G5
 E|-----------------|------------------|-----------------|------------------|
 B|-------5---5-3=--|-------5-3=-------|-------5---5-3=--|-------5-3=-------|
 G|-------5---5-3=--|-------5-3=h5p3---|-------5---5-3=--|-------5-3=h5p3---|
 D|-------5---5-3=--|-------5-3=-----5-|-------5---5-3=--|-------5-3=-----5-|
 A|-----------------|------------------|-----------------|------------------|
 E|-3--3------------|-3--3-------------|-3--3------------|-3--3-------------|


Gtr 2
   G5
 E|-----------------|------------------|-----------------|------------------|
 B|-----------------|------------------|-------18^(20)~~-|--hb--~~----------|
 G|-----------------|------------------|-----------------|------------------|
 D|-----------------|------------------|-----------------|------------------|
 A|-----------------|------------------|-----------------|------------------|
 E|-----------------|------------------|-----------------|------------------|


(Gtr 2 con'd)
   G5
 E|-----------------|------------------|-----------------|------------------|
 B|---hb--~~--------|---hb--~~----r18--|-18~~\-----------|------------------|
 G|-----------------|------------------|---------------0-|-3p0---0--5^(7)-3~|
 D|-----------------|------------------|-----------------|----3-------------|
 A|-----------------|------------------|-----------------|------------------|
 E|-----------------|------------------|-----------------|------------------|


1ST VERSE:

   G5
 E|-----------------|------------------|-----------------|------------------|
 B|-------5---5-3=--|-------5-3=-------|-------5---5-3=--|-------5-3=-------|
 G|-------5---5-3=--|-------5-3=h5p3---|-------5---5-3=--|-------5-3=h5p3---|
 D|-------5---5-3=--|-------5-3=-----5-|-------5---5-3=--|-------5-3=-----5-|
 A|-----------------|------------------|-----------------|------------------|
 E|-3--3------------|-3--3-------------|-3--3------------|-3--3-------------|
I've been up___________________________________________________


    C5                                   G5
 E|-----------------|------------------|-----------------|------------------|
 B|-------10--10-8=-|-----10-8=--------|-------5---5-3=--|-------5-3=-------|
 G|-------10--10-8=-|-----10-8=h10p8---|-------5---5-3=--|-------5-3=h5p3---|
 D|-------10--10-8=-|-----10-8=-----10-|-------5---5-3=--|-------5-3=-----5-|
 A|-----------------|------------------|-----------------|------------------|
 E|-8--8------------|-8-8--------------|-3--3------------|-3--3-------------|
            


   D5                C5                 G5                   C5 Db5 D5
 E -----------------|------------------|-----------------|------------------|
 B -------12--12-10=|-----10-8=--------|-------5---5-3=--|------------------|
 G -------12--12-10=|-----10-8=h10p8---|-------5---5-3=--|----5-6--7=-------|
 D -------12--12-10=|-----10-8=-----10-|-------5---5-3=--|----5-6--7=-------|
 A -----------------|------------------|-----------------|----3-4--5=-------|
 E 10-10------------|-8-8--------------|-3--3------------|------------------|
lord,take me downtown____________________________________

2ND VERSE:    (played same as 1st Verse)



GUITAR SOLO:

 E -------------------------|
 B -------------------------|
 G -----------15^w\-0-3p0-3-|
 D -------------------------|
 A -------------------------|
 E -------------------------|


   G5
 E -------------------------|----------------------------|
 B -------------------------|----------------------------|
 G -5^(7)---------5~~-------|-3^q-0--3p0------3--------3-|
 D -------------------------|------------3--5---5--3h5---|
 A -------------------------|----------------------------|
 E -------------------------|----------------------------|


   G5
 E -------------------------|----------------------------|
 B -------------------------|----------------------------|
 G -5^(7)---------5~~-------|-3^q-0--3p0----0------------|
 D -------------------------|------------3----3-0--3p0---|
 A -------------------------|--------------------------3-|
 E -------------------------|----------------------------|


   C5
 E -------------------------|----------------------------|
 B -------------------------|--------5---3---------------|
 G -------------------------|-3p0----5---3-------------3-|
 D -----------------------3-|-----3--5---3---------------|
 A -1-------------1---3h5---|----------------------------|
 E -----3--1---3------------|----------------------------|


 G5
|-----------------------------------------------|-----------------------|
|-----------------------------------------------|-----------------------|
|-5^(7)--(7)-(7)-(7)-(7)-(7)-(7)-(7)-(7)-(7)-(7)|(7)--(7)-(7)r5-3---3---|
|-----------------------------------------------|-----------------5---5-|
|-----------------------------------------------|-----------------------|
|-----------------------------------------------|-----------------------|


   D5                            C5
 E -----------------------------|----------------------------|
 B -/8--8--/8--8--/8--8--11p8---|----------------------8-----|
 G ---------------------------10|\9--9---9--9---9--9-----9-7-|
 D -----------------------------|----------------------------|
 A -----------------------------|----------------------------|
 E -----------------------------|----------------------------|

[ Tab from: http://www.guitartabs.cc/tabs/g/girlschool/tush_tab.html ]
   G5                                C5 Db5 D5
 E ----------------------------|-----------------------------|
 B ----------------------------|-----------------------------|
 G -9p7-5--7p5-2--5p2-0--2p0---|-0---------------------------|
 D --------------------------2-|---2-0--0--------------------|
 A ----------------------------|----------1------------------|
 E ----------------------------|------------2----------------|


   G5
 E -----------------------------------|-----------------------------------|
 B -15--15-------15-------15------15--|-----------------------------------|
 G ---------17^w-----17^w----17^w-----|-17^(19)r17p15------15----------15-|
 D -----------------------------------|----------------17----------17-----|
 A -----------------------------------|-----------------------------------|
 E -----------------------------------|-----------------------------------|


   G5
 E -----------------------------------|-----------------------------------|
 B ------18-15------------------------|-----------------------------------|
 G -17^w-------17-15-17-15----15------|---15------------------------------|
 D ------------------------17----17-15|-17---17-15------------------------|
 A -----------------------------------|------------17-15-15h16p15-------15|
 E -----------------------------------|---------------------------15h18---|


   C5
 E -----------------------------------------|-----------------------------|
 B -----------------------------------------|-----------------------------|
 G -----------------------------------------|-----------------------------|
 D -----------------------------------------|-----------------------------|
 A -15^(17)---(17)-(17)-(17)-(17)-(17)-(17)-|-(17)r15--13h15p13-12~-------|
 E -----------------------------------------|-----------------------------|


   G5
 E -----------------------------------------|-----------------------------|
 B -----------------------------------------|-----------------------------|
 G -----------------------------------------|-----------------------------|
 D -----------------------------------------|-----------------------------|
 A --12^(13)--(13)r12--10--12p10-8--10p8----|-----------------------------|
 E --------------------------------------10-|-8^(10)---8^(10)---1----3----|


   D5                           C5
 E ----------------------------|-----------------------------|
 B ----------------------------|-------------------------/10-|
 G ------3---5-3=h5p3------3-5-|-/7---5---7---5---7~---------|
 D -3h5----------------5-------|-----------------------------|
 A ----------------------------|-----------------------------|
 E ----------------------------|-----------------------------|


   G5                                 C5  Db5 D5
 E ----------------------------|-----------------------------|
 B -11~---10^(11)--------------|-----------------------------|
 G -----------------12~---0--0-|-12p0-15--17-17^(19)~~-------|
 D ----------------------------|-----------------------------|
 A ----------------------------|-----------------------------|
 E ----------------------------|-----------------------------|

3RD VERSE:    (played same as other verses)


OUTRO:

      C5 Db5 D5
 E ----------------------------|
 B ----------------------------|
 G ----------------------------|
 D -------------------------15-|
 A ----------------17-15h17----|
 E ----------------------------|


   G5
 E ---------------------------------------------|
 B -15=--15-15-15=--15-15-15=--15-15-15=--15-15-|
 G -15=--15-15-15=--15-15-15=--15-15-15=--15-15-|
 D -15=--15-15-15=--15-15-15=--15-15-15=--15-15-|
 A ---------------------------------------------|
 E ---------------------------------------------|


   G5
 E ---------------------------------------------|
 B -15=--15-15-15=--15-15-15=-------------------|
 G -15=--15-15-15=--15-15-15=----15-------------|
 D -15=--15-15-15=--15-15-15=----------------15-|
 A ----------------------------------15h17------|
 E ---------------------------------------------|


   G5
 E --------------------------------------|---------------------------------|
 B -15=--15-15-15=--15-15-15=------------|---------------------------------|
 G -15=--15-15-15=--15-15-15=-15-17p15-17|-17^w-17^w--17p15----------------|
 D -15=--15-15-15=--15-15-15=------------|------------------17----------15-|
 A --------------------------------------|---------------------17-15h17----|
 E --------------------------------------|---------------------------------|


   C5
 E -------------------------------------------|----------------------------|
 B -------------------------------------------|-----18-----------15------15|
 G -15=--15-15-15=----15-17=--17-17-17=--15h17|-17^w---17^w-17^w----17^w---|
 D -15=--15-15-15=-17----17=--17-17-17=-------|----------------------------|
 A -------------------------------------------|----------------------------|
 E -------------------------------------------|----------------------------|


   G5
 E ------------------------------------|----------------------------|
 B ----15-15----15-15----15-15----15-15|----------------------------|
 G 17^w-----17^w-----17^w-----17^w-----|-17^w--17^wr17p15---15----0-|
 D ------------------------------------|-----------------17---17----|
 A ------------------------------------|----------------------------|
 E ------------------------------------|----------------------------|


   D5                            C5
 E -----------------------------|------------------------------|
 B -----------------------------|------------------------------|
 G -3-0-3/5-3-5--7-5-7--10-7-10-|/12~--10h12---15/17~~===p15---|
 D -----------------------------|------------------------------|
 A -----------------------------|------------------------------|
 E -----------------------------|------------------------------|


   G5          B5         C5       Db5       D5        Ab5 G5
 E -----------------------------------------|------------------|
 B --------18-------------------------------|------------------|
 G -17^(19)---(19)r17-15-17p15-12--15-12-10-|-10---7---5---4~=^|
 D -----------------------------------------|------------------|
 A -----------------------------------------|------------------|
 E -----------------------------------------|------------------|
                                             (tempo slows)

            +   +   +     G5
 E -----------------------------|
 B -----------------12----------|
 G -0tr3--------12--------------|
 D ---------12-------------5----|
 A ------------------------5----|
 E ------------------------3----|
            ^
(play natural harmonics at 12th fret)

-----------------------------------------------------------------------------

^...bend (w=whole tone,q=quarter)    \...slide down
r...release bend                     hb..hold bend
h...hammer on                        =...hold note
p...pull off                         ~...vibrato
/...slide up                         tr..trill
+...harmonic
Comments