Girls Under Glass - When I Think About You Chords & Tabs

 

When I Think About You Chords & Tabs

Girls Under Glass Chords & Tabs

Version: 1 Type: Tab 0 ratings
1 star 2 stars 3 stars 4 stars 5 stars
comments

When I Think About You Tab

   
#----------------------------------PLEASE NOTE---------------------------------#
#This file is the author's own work and represents their interpretation of the #
#song. You may only use this file for private study, scholarship, or research. #
#------------------------------------------------------------------------------##
#

Date: Mon, 8 Jul 1996 12:39:57 -0500 (CDT)
From: Avelino Andretti Benavides [ Tab from: http://www.guitartabs.cc/tabs/g/girls_under_glass/when_i_think_about_you_tab.html ]
     Main riff  C#m            E(7th fret)    A(5th fret)    G#m
 E--------------4--------------7--------------5--------------4----|
 B--------------5--------------9--------------5--------------4----|
 G--------------6--------------9--------------6--------------4---*|
 D--------------6--------------9--------------7--------------6---*|
 A--------------4--------------7--------------7--------------6----|
 E--------------4--------------7--------------5--------------4----|


   Power Chords      C#5 E5 A5 G#5
 E-------------------x---0--x--x---||--------------------|
 B-------------------x---0--x--x---||--------------------|
 G-------------------x---9--x--x--*||--------------------|
 D-------------------11--9--7--6--*||--------------------|
 A-------------------11--7--7--6---||--------------------|
 E-------------------9---0--5--4---||--------------------|


 The song goes mainly this way:
 Intro:
       The song enters with keyboards, you can go ahead with the
 main riff sweeping slowly the chords.
 Verses:
       Follow the song with the power chords, try sliding as much as
 possible.
 Chorus:
       Strum the chords in the main riff.
 lyr: When i think [C#m] about you, when i close [E]my eyes [A]...

 Easy song to play and wonderful to jam with.
 More Goth Band Tabs, info, comments, additions, sugestions at:
 Email: al448482@academ01.cem.itesm.mx
 or BBS:
 Deadcandance
 club.gdl.iteso.mx & bbs.isca.uiowa.edu
Comments