Girls Aloud - Life Got Cold Chords & Tabs

 

Life Got Cold Chords & Tabs

Girls Aloud Chords & Tabs

Version: 1 Type: Chords 0 ratings
1 star 2 stars 3 stars 4 stars 5 stars
comments

Life Got Cold Chords

Girls Aloud - Life Got Cold  

[Acoustic guitar, standard tuned]

Intro Riff:  

e------------------------|--------------------------|
B------------------------|--------------------------|
G------------------------|--------------------------|
D--/3p2---0--------------|----0-2-2h3-2--0-2b-0-----|
A-------3---0---0-0h3-0--|--0-----------3-----------|
E-------------3----------|--------------------------|


The Verse riff is slight variation [Combination] on the Intro
[ Tab from: http://www.guitartabs.cc/tabs/g/girls_aloud/life_got_cold_crd.html ]
e-----------------------------------------------------------
B-----------------------------------------------------------
G-----------------------------------------------------------
D--0-2-2h3p2---0------------------0-2-2h3-2--0-2b-0--------------
A-0---------3----0---0-0h3-0----0-----------3-------------
E------------------3------------------------------------------
                                                
Theres picking in the Chorus, which I can't figure out


Hope this helps someone, It cheered me up

If anyone has any feedback/ suggestions, please email me at:
jameswale@hotmail.com

Thanks.
Comments