Gin Blossoms - Until I Hear It From You Chords & Tabs

 

Until I Hear It From You Chords & Tabs

Gin Blossoms Chords & Tabs

Version: 2 Type: Tab 0 ratings
1 star 2 stars 3 stars 4 stars 5 stars
comments

Until I Hear It From You Tab

Title: "Until I Hear It From You"
Artist/Band: Gin Blossoms
Tabbed by: Miles Alcantara
Miles_inevitable@hotmail.com

-capo on 4th fret
-standard tuning

Intro: (play this intro 2x)

e----3-----2-0------|
b------3-------3----|
g--0-----0-------0--|
d-------------------|
a-------------------|
E-------------------|

e----3-----2-0------|
b------3-------3----|
g--------0-------0--|
d--2----------------|
a-------------------|
E-------------------|

e----2-----0-----0--|
b------3-----3------|
g--------0-----0----|
d--4----------------|
a-------------------|
E-------------------|
[ Tab from: http://www.guitartabs.cc/tabs/g/gin_blossoms/until_i_hear_it_from_you_tab_ver_2.html ]
e----2-----0-----0--|
b------3-----3------|
g--------0-----0----|
d--0----------------|
a-------------------|
E-------------------|

End of intro...

Hi! This is my first time to ever tab a song and I would really, really appreciate it if you rate my work.
However, I'm 99.9% sure of my tabs and I'm currently working on the whole song
trying to find the accurate chords. I already found the chords for each verse,
but the chorus part is a little complicated than what it seems.
Here are the chords for each verse. (G, Em, Bm7 and D...)

This is a cool song! If you have any comments or suggestions,
you can E-mail me at miles_inevitable@hotmail.com. Thanks very much!!!
Comments