Gin Blossoms - Hey Jealousy Chords & Tabs

 

Hey Jealousy Chords & Tabs

Gin Blossoms Chords & Tabs

Version: 1 Type: Tab 0 ratings
1 star 2 stars 3 stars 4 stars 5 stars
comments

Hey Jealousy Tab

   
#----------------------------------PLEASE NOTE---------------------------------#
#This file is the author's own work and represents their interpretation of the #
#song. You may only use this file for private study, scholarship, or research. #
#------------------------------------------------------------------------------##
Received: from animal-farm.nevada.edu by redrock.nevada.edu (5.65c/M1.4)
with SMTP id ; Thu, 14 Oct 1993 22:43:31 -0700
Received: from Pearl.Tufts.EDU by animal-farm.nevada.edu id ; Thu, 14 Oct 1993 22:43:28 -0700
Received: from PEARL.TUFTS.EDU by PEARL.TUFTS.EDU (PMDF V4.2-12 #4561) id
 ; Fri, 15 Oct 1993 01:40:18 EDT
Date: Fri, 15 Oct 1993 01:40:18 -0400 (EDT)
From: DBRAUE@PEARL.TUFTS.EDU
Subject: "Hey Jealousy" by Gin Blossoms - tab for FTP
To: jamesb@animal-farm.nevada.edu
Message-Id: 
X-Vms-To: IN%"jamesb@nevada.edu"
Mime-Version: 1.0
Content-Transfer-Encoding: 7BIT

HEY JEALOUSY by Gin Blossoms
============================
 
]]] means continue picking the note with the beat
... means hold the note
 
Two guitars in this one besides the bass: 1 is not distorted but uses some
effect to get a sharp/crispish sound; 2 is just distorted.  This tab is my
best guess at the song from repeated listens...  of course, listening to
the song will help smooth it out and make sense of everything.
 
***************** Special note about the verse parts **********************
 
GUITAR 1
Arpeggiate each chord something like this:
 E(vii)
-----------------|
-----------------|
------9-----9----|
--------9--------|
-7--7-----7------|
-----------------|
 
GUITAR 2
The part marked with a single asterisk (*) is played this way:
     Play the first chord, then hold it.
     When the next chord comes, pick the last chord then slide to the
          new one.  Strum and hold until the next change.
The part marked with the double asterisk (**) is played with constant
     strumming (16th notes).
 
Again, listening to the song will clear everything up.
 
============================ CUT HERE ===================================
 
INTRO
=====
           D(v)   E(vii)  F#m(ix)
----------------|-------|----------
----------------|-------|----------
------------7---|---9---|--11------  [2 times]
------------7---|---9---|--11------
------------5---|---7---|---9------
----7-9-7-0-----|-------|----------
 
[ Tab from: http://www.guitartabs.cc/tabs/g/gin_blossoms/hey_jealousy_tab.html ]
 
 
GUITAR 2  ====================>           A(v)              D(v)
---------------------------------------------------------------------
----10---10--10-10-]]]----------10-----10-10-10-10---10-9-7----------
------------------------------------------------------------9--------
----[this part played by GUITAR 1]-----------------------------------
---------------------------------------------------------------------
---------------------------------------------------------------------
                          Tomorrow we can drive around this town
 
            A(v)          D(v)
------------------------------------
------------------------------------
---9/11-11-11-11-9------------------
-------------------12-11-12---------
------------------------------------
------------------------------------
And let the cops____________________
 
                     F#m(ix)            E(vii)            D(v)
-----------------------------------------------------------------
-------------------9/10-10-]]]]]]]]--10/12-]]]]]]]]]]]]]]-10-----
-----------------------------------------------------------------
-----------------------------------------------------------------
-----------------------------------------------------------------
-----------------------------------------------------------------
The past is gone_________________________________________________
 
 
[each time:   D(v)         E(vii)          F#m(ix)       E(vii)]
hey jealousy_____________________________________________________
 
 
VERSE 2 -- repeat first guitar parts
====================================
 
 
[solo - GUITAR 1]
-----------------------------------------------
--10-10-----10-9-7-----------10----------------
-------------------9--9-9/11----11-9----9------
-------------------------------------11--------
-----------------------------------------------
-----------------------------------------------
 
 
-----------------------------------------------------------------
-----------------------------------------------------------------
-----------------------------------------------------------------
--9--9/11-9\7--9P7-7---------------------------------------------
-------------------------------------9-12-14-16-16P14P12---------
----------------------------10-10-12---------------------14-12---
 
-----------------------------------------------------------------
-----------------------------------------------------------------
--------------------------14-14----14-16-16P14-14-14-14-14-14-14-
-----------------14/16-16-16-16-16-16-16-16----16-16-16-16-16-16-
--------12-14/16-------------------------------------------------
--12/14----------------------------------------------------------
 
 
------------------------------------------
--14P13P11-14P13P11-14P13P11-14P13P11-----
------------------------------------------ [2 times]
------------------------------------------
------------------------------------------
------------------------------------------
 
-----12-12----12-12----12----12-12-12-12-12-------------
--14-------14-------14----------------------14P12P10----
--------------------------------------------------------
--------------------------------------------------------
--------------------------------------------------------
--------------------------------------------------------
 
--------------------------------12---12-12-12--------------------
--14P12P10-14P12P10-14P12P10-14---------------14P12P10-12-10...--
-----------------------------------------------------------------
-----------------------------------------------------------------
-----------------------------------------------------------------
-----------------------------------------------------------------
 
 

 
 
D(v) |  E(vii) | F#m(ix) | E(vii)
 
              D(v) | E(vii)      | F#m(ix) | E(vii)
hey jealousy__________________________________________
 
             D(v)            E(vii)   F#m(ix)   E(vii)
______________________________________________________
 
        E(vii)
-----------------------------------------------------------------
-----------------------------------------------------------------
--------9...----9...-----v===final drum/guitar crash comes here--
--------9...--9-9...-----x---------------------------------------
--------7...--7-7...--------5-
Comments