Gin Blossoms - Hey Jealousy Chords & Tabs

 

Hey Jealousy Chords & Tabs

Gin Blossoms Chords & Tabs

Version: 2 Type: Bass Tab 0 ratings
1 star 2 stars 3 stars 4 stars 5 stars
comments

Hey Jealousy Bass Tab

   
FTH80:G D A E ; Generated by Fast Tab, do not erase
====================
From            :Tabbed by Vince Corbino
Artist          : Gin Blossoms
Bass Performance: "Hey Jealousy"
Comments:       : There is three parts to this one,
just listen for the changes, and have fun!!!
Strings: E ,A ,D ,G 
Symbols explanations:
  H: hammer on  P: pull off
  +: slap       .: pop
  \: slide up   /: slide down
  --x~~x~~x: triplets
====================


INTRO:
|   q  q  q  q                                                                   
G -------------------------------------------------------------------------------
D -------------------------------------------------------------------------------
A --2H-4H-2----------------------------------------------------------------------
E ---------H-4-------------------------------------------------------------------
>                                                                                
[ Tab from: http://www.guitartabs.cc/tabs/g/gin_blossoms/hey_jealousy_btab_ver_2.html ]
Main bass line:
|   q  q  q  q  q  q  q  q  q  q  q  q  q  q  q  q  q  q  q  q  q  q  q  q       
G -------------------------------------------------------------------------------
D -------------------------------------------------------------------------------
A --5--5--5--5--5\-7--7--7--7--7H-9--9--9--9--9P-7--7--7--7--7H-9H-7-----7-------
E ------------------------------------------------------------------H-9----------
>                                                                                

Guitar Solo, Bass Line...

|   q  q  q  q  q  q  q  q  q  q  q  q  q  q  q  q  q  q  q  q  q  q  q  q  q  q 
G -------------------------------------------------------------------------------
D -------------------------------------------------------------------------------
A --0--0--0--0--0--5--5--5--5--5--0--0--0--0--0--0--5--5--5--5--5----------------
E -----------------------------------------------------------------2--2--2--2--2-
>                                                                                

|   q  q  q  q  q  q  q  q  q  q
G ------------------------------
D ------------------------------
A -----------------5--5--5--5--5
E --0--0--0--0--0---------------
>    
Comments