Gin Blossoms - As Long As It Matters Chords & Tabs

 

As Long As It Matters Chords & Tabs

Gin Blossoms Chords & Tabs

Version: 3 Type: Tab 0 ratings
1 star 2 stars 3 stars 4 stars 5 stars
comments

As Long As It Matters Tab

   
As long as it matters by Gin Blossoms
tabbed by justin carlo c
visit me at my friendster account justincarlo88@yahoo.com
yahoo messenger - jco_lead
(Im running out of comments, well I just hope you enjoy this song
coz its really nice...)

INTRO
guitar 1
(mild distortion)
h- hammer on
H- hammer off
s- slide
-------------PAUSE-----------------------------------|
-----3--3----PAUSE—3h5-3-----------------------------|
----0--0-----PAUSE------4-5-5-2--5-4-2-2-5s2-2H0-0---|
-3s5---------PAUSE-----------------------------------|
-------------PAUSE-----------------------------------|
-------------PAUSE-----------------------------------|

---------------777H555s333s222H000---------5h77777777-5----|
-----------3-3----------------3h5-3h5-3--------------------|
----0--2s4-------------------------------------------------|
-0h2---3s5-------------------------------------------------|
-----------------------------------------------------------|
-----------------------------------------------------------|

guitar2
(mild distortion)
G  G/F#  G/E  G/C  D
--2--2--2--2--2--------------------------------|
--2--2--2--2--3--------------------------------|
--0--0--0--0--2--------------------------------|
--0--0--2--2--0--------------------------------|
--2--0--2--3--x--------------------------------|
--3--2--x--x--x--------------------------------|


VERSE
guitar1
(very mild distortion)
plucking
h- hammer on
H- hammer off
s- slide
--------3-------------0-----------0-----------------|
------3---3--3-------3--3-3------3--3-3-----3-------|
-----0-0----0-------0-0--0------0-0--0-----2-2------|
--3s5-------------4-----------2----------0----------|
----------------------------------------------------|
----------------------------------------------------|

----------------0---------3---------3---------------------|
--------------3---3-3----3--3-3----3---3-3-------5----8---|
--2s4s2-2-0----0-0---0----0-0--0----0-0---0----7--7---7---|
--2s4s2-2-------------------------------------7-7---------|
------------3------------------------------3s5--------5---|
-----------------------3--------0-------------------------|

--------3-------------0-----------0-----------------|
------3---3--3-------3--3-3------3--3-3-----3-------|
-----0-0----0-------0-0--0------0-0--0-----2-2------|
--3s5-------------4-----------2----------0----------|
----------------------------------------------------|
----------------------------------------------------|

----------------0---------3---------3--------------------|
--------------3---3-3----3--3-3----3---3-3-------5-------|
--2s4s2-2-0----0-0---0----0-0--0----0-0---0----7--7--7---|
--2s4s2-2-------------------------------------7-7---7-7--|
------------3------------------------------3s5-----------|
-----------------------3--------0------------------------|

---------------------------------------|
---------5-----------------------------|
------7----7--7------------------------|
-----7-7-----7-7-----------------------|
--3s5----------------------------------|
---------------------------------------|

!ST CHORUS of the song
h- hammer on
H- hammer off
s- slide
--------3-------------0-----------0---------0--------|
------3---3--3-------3--3-3------3--3-3-----3--3-3---|
-----0-0----0-------0-0--0------0-0--0-----0-0--0----|
--3s5-------------4-----------2----------2-----------|
-----------------------------------------------------|
-----------------------------------------------------|

------3---------3----------0---------2----------|
----3--3-3----3---3-3-----3--3-3----3--3-3------|
---0-0--0----0-0---0-----2-2--2----2-2--2-------|
----------------------0---------0---------------|
--3--------3------------------------------------|
------------------------------------------------|
[ Tab from: http://www.guitartabs.cc/tabs/g/gin_blossoms/as_long_as_it_matters_tab_ver_3.html ]
Guitar2
(mild distortion)
G  G/F#  G/E  G/C  D
--2--2--2--2--2--------------------------------|
--2--2--2--2--3--------------------------------|
--0--0--0--0--2--------------------------------|
--0--0--2--2--0--------------------------------|
--2--0--2--3--x--------------------------------|
--3--2--x--x--x--------------------------------|

2ND CHORUS of the song
Guitar1
(very mild distortion)
h- hammer on
H- hammer off
s- slide
--------3-------------0-----------0---------0--------|
------3---3--3-------3--3-3------3--3-3-----3--3-3---|
-----0-0----0-------0-0--0------0-0--0-----0-0--0----|
--3s5-------------4-----------2----------2-----------|
-----------------------------------------------------|
-----------------------------------------------------|

------3---------3----------0---------0----------|
----3--3-3----3---3-3-----3--3-3----3--3-3------|
---0-0--0----0-0---0-----2-2--2----2-2--2-------|
----------------------0---------0---------------|
--3--------3------------------------------------|
------------------------------------------------|

--------3-------------0-----------0---------0--------|
------3---3--3-------3--3-3------3--3-3-----3--3-3---|
-----0-0----0-------0-0--0------0-0--0-----0-0--0----|
--3s5-------------4-----------2----------2-----------|
-----------------------------------------------------|
-----------------------------------------------------|

------3---------3----------2---------2----------|
----3--3-3----3---3-3-----3--3-3----3---3-3-----|
---0-0--0----0-0---0-----2-2--2----2-2---2------|
----------------------0---------0---------------|
--3--------3------------------------------------|
------------------------------------------------|


Guitar2 (x2)
(mild distortion)
G  G/F#  G/E  G/C  D
--2--2--2--2--2--------------------------------|
--2--2--2--2--3--------------------------------|
--0--0--0--0--2--------------------------------|
--0--0--2--2--0--------------------------------|
--2--0--2--3--x--------------------------------|
--3--2--x--x--x--------------------------------|

LEAD
(very mild distortion)
h- hammer on
H- hammer off
s- slide
/-bend
------------------------------------------------3-----|
-----7-7s8---7-7s8--7-7s8-----------------------------|
----------7------5------------------------------------|
--3s5-------------------5----5-7/-5--7-5--------------|
-------------------------5-7-----------7-5------------|
------------------------------------------7-5-3-3-----|

--3333-5----12--12--12--12--12--12--------------|
-------10s12--12--12--12--12--12—12-12s10-10s8--|
------------------------------------------------|
------------------------------------------------|
------------------------------------------------|
------------------------------------------------|

OUTRO
Guitar1
(very mild distortion)
h- hammer on
H- hammer off
s- slide
/-bend

--------------------------------------------------------------------|
-----333-3h5-3---------333-3h5-5------------------------------------|
---------------4H2---------------4H2--------------------------------|
--3h5--------------5-5---------------5-5----5-------------5-7s9-5---|
----------------------------------------5h7---7--5h7--5h7-----------|
--------------------------------------------------------------------|

---------------------------------------------------------------------------|
---------------------------------------------------------8-----------------|
-----7---------7---------7----7----------7----------7-9/--7h5-7-5-4-5-5s7--|
--7s9—9H7---7h9-9H7---7h9--7h9-9H7----7h9-9H7----7h9-----------------------|
---------10--------10--------------10---------10---------------------------|
---------------------------------------------------------------------------|

Guitar2 (x2)
(mild distortion)
G  G/F#  G/E  G/C  D
--2--2--2--2--2--------------------------------|
--2--2--2--2--3--------------------------------|
--0--0--0--0--2--------------------------------|
--0--0--2--2--0--------------------------------|
--2--0--2--3--x--------------------------------|
--3--2--x--x--x--------------------------------|

tnx to all who have inspired me play...G0D, my family, bea, friends/classmates, NU 107!
support our band freefall/ support our song tightrope!
freefall@yahoo.com (friendster account) \m/
please rate my tab
hope you enjoy my tabs
hey visit my other tabs..ok
aiya! please download final distance/distance by utada hikaru. its very nice!
Comments